0
SECTION
2
HEADER
9
$ACADVER
1
AC1009
0
ENDSEC
0
SECTION
2
TABLES
0
TABLE
2
LAYER
70
2
0
LAYER
2
1
70
64
62
4
6
CONTINUOUS
0
ENDTAB
0
ENDSEC
0
SECTION
2
ENTITIES
0
POLYLINE
8
1
62
0
66
1
70
9
0
VERTEX
8
1
10
-92.414339
20
285.075007
30
-135.909737
0
VERTEX
8
1
10
-92.414339
20
281.107573
30
-135.210172
0
VERTEX
8
1
10
-105.214339
20
281.107573
30
-135.210172
0
VERTEX
8
1
10
-105.214339
20
285.075007
30
-135.909737
0
VERTEX
8
1
10
-102.752520
20
285.075007
30
-135.909737
0
VERTEX
8
1
10
-102.521116
20
283.725850
30
-135.671845
0
VERTEX
8
1
10
-101.840515
20
282.535743
30
-135.461997
0
VERTEX
8
1
10
-100.791664
20
281.650178
30
-135.305848
0
VERTEX
8
1
10
-99.501451
20
281.178200
30
-135.222625
0
VERTEX
8
1
10
-98.127226
20
281.178200
30
-135.222625
0
VERTEX
8
1
10
-96.837013
20
281.650178
30
-135.305848
0
VERTEX
8
1
10
-95.788162
20
282.535743
30
-135.461997
0
VERTEX
8
1
10
-95.107561
20
283.725850
30
-135.671845
0
VERTEX
8
1
10
-94.876157
20
285.075007
30
-135.909737
0
SEQEND
0
POLYLINE
8
1
62
0
66
1
70
9
0
VERTEX
8
1
10
-92.414339
20
277.618671
30
-115.423622
0
VERTEX
8
1
10
-92.414339
20
281.107573
30
-113.409303
0
VERTEX
8
1
10
-96.608301
20
281.107573
30
-113.409303
0
VERTEX
8
1
10
-98.025309
20
280.600197
30
-113.702237
0
VERTEX
8
1
10
-99.603368
20
280.600197
30
-113.702237
0
VERTEX
8
1
10
-101.020376
20
281.107573
30
-113.409303
0
VERTEX
8
1
10
-105.214339
20
281.107573
30
-113.409303
0
VERTEX
8
1
10
-105.214339
20
277.618671
30
-115.423622
0
SEQEND
0
POLYLINE
8
1
62
0
66
1
70
9
0
VERTEX
8
1
10
-92.414339
20
281.107573
30
-113.409303
0
VERTEX
8
1
10
-92.414339
20
285.075007
30
-112.709737
0
VERTEX
8
1
10
-94.243429
20
285.075007
30
-112.709737
0
VERTEX
8
1
10
-94.526142
20
283.514231
30
-112.984944
0
VERTEX
8
1
10
-95.323609
20
282.145937
30
-113.226211
0
VERTEX
8
1
10
-96.538363
20
281.132901
30
-113.404837
0
VERTEX
8
1
10
-96.608301
20
281.107573
30
-113.409303
0
SEQEND
0
POLYLINE
8
1
62
0
66
1
70
9
0
VERTEX
8
1
10
-103.385248
20
285.075007
30
-112.709737
0
VERTEX
8
1
10
-105.214339
20
285.075007
30
-112.709737
0
VERTEX
8
1
10
-105.214339
20
281.107573
30
-113.409303
0
VERTEX
8
1
10
-101.020376
20
281.107573
30
-113.409303
0
VERTEX
8
1
10
-101.090314
20
281.132901
30
-113.404837
0
VERTEX
8
1
10
-102.305068
20
282.145937
30
-113.226211
0
VERTEX
8
1
10
-103.102535
20
283.514231
30
-112.984944
0
SEQEND
0
POLYLINE
8
1
62
0
66
1
70
9
0
VERTEX
8
1
10
-92.414339
20
285.075007
30
-112.709737
0
VERTEX
8
1
10
-92.414339
20
289.042441
30
-113.409303
0
VERTEX
8
1
10
-96.608301
20
289.042441
30
-113.409303
0
VERTEX
8
1
10
-96.538363
20
289.017113
30
-113.404837
0
VERTEX
8
1
10
-95.323609
20
288.004077
30
-113.226211
0
VERTEX
8
1
10
-94.526142
20
286.635783
30
-112.984944
0
VERTEX
8
1
10
-94.243429
20
285.075007
30
-112.709737
0
SEQEND
0
POLYLINE
8
1
62
0
66
1
70
9
0
VERTEX
8
1
10
-101.020376
20
289.042441
30
-113.409303
0
VERTEX
8
1
10
-105.214339
20
289.042441
30
-113.409303
0
VERTEX
8
1
10
-105.214339
20
285.075007
30
-112.709737
0
VERTEX
8
1
10
-103.385248
20
285.075007
30
-112.709737
0
VERTEX
8
1
10
-103.102535
20
286.635783
30
-112.984944
0
VERTEX
8
1
10
-102.305068
20
288.004077
30
-113.226211
0
VERTEX
8
1
10
-101.090314
20
289.017113
30
-113.404837
0
SEQEND
0
POLYLINE
8
1
62
0
66
1
70
9
0
VERTEX
8
1
10
-92.414339
20
289.042441
30
-113.409303
0
VERTEX
8
1
10
-92.414339
20
292.531343
30
-115.423622
0
VERTEX
8
1
10
-105.214339
20
292.531343
30
-115.423622
0
VERTEX
8
1
10
-105.214339
20
289.042441
30
-113.409303
0
VERTEX
8
1
10
-101.020376
20
289.042441
30
-113.409303
0
VERTEX
8
1
10
-99.603368
20
289.549817
30
-113.702237
0
VERTEX
8
1
10
-98.025309
20
289.549817
30
-113.702237
0
VERTEX
8
1
10
-96.608301
20
289.042441
30
-113.409303
0
SEQEND
0
POLYLINE
8
1
62
0
66
1
70
9
0
VERTEX
8
1
10
-92.414339
20
289.042441
30
-135.210172
0
VERTEX
8
1
10
-92.414339
20
285.075007
30
-135.909737
0
VERTEX
8
1
10
-94.876157
20
285.075007
30
-135.909737
0
VERTEX
8
1
10
-95.107561
20
286.424164
30
-135.671845
0
VERTEX
8
1
10
-95.788162
20
287.614271
30
-135.461997
0
VERTEX
8
1
10
-96.837013
20
288.499836
30
-135.305848
0
VERTEX
8
1
10
-98.127226
20
288.971814
30
-135.222625
0
VERTEX
8
1
10
-99.501451
20
288.971814
30
-135.222625
0
VERTEX
8
1
10
-100.791664
20
288.499836
30
-135.305848
0
VERTEX
8
1
10
-101.840515
20
287.614271
30
-135.461997
0
VERTEX
8
1
10
-102.521116
20
286.424164
30
-135.671845
0
VERTEX
8
1
10
-102.752520
20
285.075007
30
-135.909737
0
VERTEX
8
1
10
-105.214339
20
285.075007
30
-135.909737
0
VERTEX
8
1
10
-105.214339
20
289.042441
30
-135.210172
0
SEQEND
0
POLYLINE
8
1
62
0
66
1
70
9
0
VERTEX
8
1
10
-94.243429
20
285.075007
30
-112.709737
0
VERTEX
8
1
10
-94.876157
20
285.075007
30
-135.909737
0
VERTEX
8
1
10
-95.107561
20
283.725850
30
-135.671845
0
VERTEX
8
1
10
-94.526142
20
283.514231
30
-112.984944
0
SEQEND
0
POLYLINE
8
1
62
0
66
1
70
9
0
VERTEX
8
1
10
-94.526142
20
283.514231
30
-112.984944
0
VERTEX
8
1
10
-95.107561
20
283.725850
30
-135.671845
0
VERTEX
8
1
10
-95.788162
20
282.535743
30
-135.461997
0
VERTEX
8
1
10
-95.323609
20
282.145937
30
-113.226211
0
SEQEND
0
POLYLINE
8
1
62
0
66
1
70
9
0
VERTEX
8
1
10
-95.323609
20
282.145937
30
-113.226211
0
VERTEX
8
1
10
-95.788162
20
282.535743
30
-135.461997
0
VERTEX
8
1
10
-96.837013
20
281.650178
30
-135.305848
0
VERTEX
8
1
10
-96.538363
20
281.132901
30
-113.404837
0
SEQEND
0
POLYLINE
8
1
62
0
66
1
70
9
0
VERTEX
8
1
10
-96.608301
20
281.107573
30
-113.409303
0
VERTEX
8
1
10
-96.538363
20
281.132901
30
-113.404837
0
VERTEX
8
1
10
-96.837013
20
281.650178
30
-135.305848
0
VERTEX
8
1
10
-98.127226
20
281.178200
30
-135.222625
0
VERTEX
8
1
10
-98.025309
20
280.600197
30
-113.702237
0
SEQEND
0
POLYLINE
8
1
62
0
66
1
70
9
0
VERTEX
8
1
10
-98.025309
20
280.600197
30
-113.702237
0
VERTEX
8
1
10
-98.127226
20
281.178200
30
-135.222625
0
VERTEX
8
1
10
-99.501451
20
281.178200
30
-135.222625
0
VERTEX
8
1
10
-99.603368
20
280.600197
30
-113.702237
0
SEQEND
0
POLYLINE
8
1
62
0
66
1
70
9
0
VERTEX
8
1
10
-101.020376
20
281.107573
30
-113.409303
0
VERTEX
8
1
10
-99.603368
20
280.600197
30
-113.702237
0
VERTEX
8
1
10
-99.501451
20
281.178200
30
-135.222625
0
VERTEX
8
1
10
-100.791664
20
281.650178
30
-135.305848
0
VERTEX
8
1
10
-101.090314
20
281.132901
30
-113.404837
0
SEQEND
0
POLYLINE
8
1
62
0
66
1
70
9
0
VERTEX
8
1
10
-101.090314
20
281.132901
30
-113.404837
0
VERTEX
8
1
10
-100.791664
20
281.650178
30
-135.305848
0
VERTEX
8
1
10
-101.840515
20
282.535743
30
-135.461997
0
VERTEX
8
1
10
-102.305068
20
282.145937
30
-113.226211
0
SEQEND
0
POLYLINE
8
1
62
0
66
1
70
9
0
VERTEX
8
1
10
-102.305068
20
282.145937
30
-113.226211
0
VERTEX
8
1
10
-101.840515
20
282.535743
30
-135.461997
0
VERTEX
8
1
10
-102.521116
20
283.725850
30
-135.671845
0
VERTEX
8
1
10
-103.102535
20
283.514231
30
-112.984944
0
SEQEND
0
POLYLINE
8
1
62
0
66
1
70
9
0
VERTEX
8
1
10
-103.102535
20
283.514231
30
-112.984944
0
VERTEX
8
1
10
-102.521116
20
283.725850
30
-135.671845
0
VERTEX
8
1
10
-102.752520
20
285.075007
30
-135.909737
0
VERTEX
8
1
10
-103.385248
20
285.075007
30
-112.709737
0
SEQEND
0
POLYLINE
8
1
62
0
66
1
70
9
0
VERTEX
8
1
10
-103.385248
20
285.075007
30
-112.709737
0
VERTEX
8
1
10
-102.752520
20
285.075007
30
-135.909737
0
VERTEX
8
1
10
-102.521116
20
286.424164
30
-135.671845
0
VERTEX
8
1
10
-103.102535
20
286.635783
30
-112.984944
0
SEQEND
0
POLYLINE
8
1
62
0
66
1
70
9
0
VERTEX
8
1
10
-103.102535
20
286.635783
30
-112.984944
0
VERTEX
8
1
10
-102.521116
20
286.424164
30
-135.671845
0
VERTEX
8
1
10
-101.840515
20
287.614271
30
-135.461997
0
VERTEX
8
1
10
-102.305068
20
288.004077
30
-113.226211
0
SEQEND
0
POLYLINE
8
1
62
0
66
1
70
9
0
VERTEX
8
1
10
-102.305068
20
288.004077
30
-113.226211
0
VERTEX
8
1
10
-101.840515
20
287.614271
30
-135.461997
0
VERTEX
8
1
10
-100.791664
20
288.499836
30
-135.305848
0
VERTEX
8
1
10
-101.090314
20
289.017113
30
-113.404837
0
SEQEND
0
POLYLINE
8
1
62
0
66
1
70
9
0
VERTEX
8
1
10
-101.020376
20
289.042441
30
-113.409303
0
VERTEX
8
1
10
-101.090314
20
289.017113
30
-113.404837
0
VERTEX
8
1
10
-100.791664
20
288.499836
30
-135.305848
0
VERTEX
8
1
10
-99.501451
20
288.971814
30
-135.222625
0
VERTEX
8
1
10
-99.603368
20
289.549817
30
-113.702237
0
SEQEND
0
POLYLINE
8
1
62
0
66
1
70
9
0
VERTEX
8
1
10
-99.603368
20
289.549817
30
-113.702237
0
VERTEX
8
1
10
-99.501451
20
288.971814
30
-135.222625
0
VERTEX
8
1
10
-98.127226
20
288.971814
30
-135.222625
0
VERTEX
8
1
10
-98.025309
20
289.549817
30
-113.702237
0
SEQEND
0
POLYLINE
8
1
62
0
66
1
70
9
0
VERTEX
8
1
10
-96.608301
20
289.042441
30
-113.409303
0
VERTEX
8
1
10
-98.025309
20
289.549817
30
-113.702237
0
VERTEX
8
1
10
-98.127226
20
288.971814
30
-135.222625
0
VERTEX
8
1
10
-96.837013
20
288.499836
30
-135.305848
0
VERTEX
8
1
10
-96.538363
20
289.017113
30
-113.404837
0
SEQEND
0
POLYLINE
8
1
62
0
66
1
70
9
0
VERTEX
8
1
10
-96.538363
20
289.017113
30
-113.404837
0
VERTEX
8
1
10
-96.837013
20
288.499836
30
-135.305848
0
VERTEX
8
1
10
-95.788162
20
287.614271
30
-135.461997
0
VERTEX
8
1
10
-95.323609
20
288.004077
30
-113.226211
0
SEQEND
0
POLYLINE
8
1
62
0
66
1
70
9
0
VERTEX
8
1
10
-95.323609
20
288.004077
30
-113.226211
0
VERTEX
8
1
10
-95.788162
20
287.614271
30
-135.461997
0
VERTEX
8
1
10
-95.107561
20
286.424164
30
-135.671845
0
VERTEX
8
1
10
-94.526142
20
286.635783
30
-112.984944
0
SEQEND
0
POLYLINE
8
1
62
0
66
1
70
9
0
VERTEX
8
1
10
-94.526142
20
286.635783
30
-112.984944
0
VERTEX
8
1
10
-95.107561
20
286.424164
30
-135.671845
0
VERTEX
8
1
10
-94.876157
20
285.075007
30
-135.909737
0
VERTEX
8
1
10
-94.243429
20
285.075007
30
-112.709737
0
SEQEND
0
POLYLINE
8
1
62
0
66
1
70
9
0
VERTEX
8
1
10
-92.414339
20
281.107573
30
-135.210172
0
VERTEX
8
1
10
-92.414339
20
277.618671
30
-133.195853
0
VERTEX
8
1
10
-105.214339
20
277.618671
30
-133.195853
0
VERTEX
8
1
10
-105.214339
20
281.107573
30
-135.210172
0
SEQEND
0
POLYLINE
8
1
62
0
66
1
70
9
0
VERTEX
8
1
10
-92.414339
20
277.618671
30
-133.195853
0
VERTEX
8
1
10
-92.414339
20
275.029112
30
-130.109737
0
VERTEX
8
1
10
-105.214339
20
275.029112
30
-130.109737
0
VERTEX
8
1
10
-105.214339
20
277.618671
30
-133.195853
0
SEQEND
0
POLYLINE
8
1
62
0
66
1
70
9
0
VERTEX
8
1
10
-92.414339
20
275.029112
30
-130.109737
0
VERTEX
8
1
10
-92.414339
20
273.651237
30
-126.324056
0
VERTEX
8
1
10
-105.214339
20
273.651237
30
-126.324056
0
VERTEX
8
1
10
-105.214339
20
275.029112
30
-130.109737
0
SEQEND
0
POLYLINE
8
1
62
0
66
1
70
9
0
VERTEX
8
1
10
-92.414339
20
273.651237
30
-126.324056
0
VERTEX
8
1
10
-92.414339
20
273.651237
30
-122.295418
0
VERTEX
8
1
10
-105.214339
20
273.651237
30
-122.295418
0
VERTEX
8
1
10
-105.214339
20
273.651237
30
-126.324056
0
SEQEND
0
POLYLINE
8
1
62
0
66
1
70
9
0
VERTEX
8
1
10
-92.414339
20
273.651237
30
-122.295418
0
VERTEX
8
1
10
-92.414339
20
275.029112
30
-118.509737
0
VERTEX
8
1
10
-105.214339
20
275.029112
30
-118.509737
0
VERTEX
8
1
10
-105.214339
20
273.651237
30
-122.295418
0
SEQEND
0
POLYLINE
8
1
62
0
66
1
70
9
0
VERTEX
8
1
10
-92.414339
20
275.029112
30
-118.509737
0
VERTEX
8
1
10
-92.414339
20
277.618671
30
-115.423622
0
VERTEX
8
1
10
-105.214339
20
277.618671
30
-115.423622
0
VERTEX
8
1
10
-105.214339
20
275.029112
30
-118.509737
0
SEQEND
0
POLYLINE
8
1
62
0
66
1
70
9
0
VERTEX
8
1
10
-92.414339
20
292.531343
30
-115.423622
0
VERTEX
8
1
10
-92.414339
20
295.120902
30
-118.509737
0
VERTEX
8
1
10
-105.214339
20
295.120902
30
-118.509737
0
VERTEX
8
1
10
-105.214339
20
292.531343
30
-115.423622
0
SEQEND
0
POLYLINE
8
1
62
0
66
1
70
9
0
VERTEX
8
1
10
-92.414339
20
295.120902
30
-118.509737
0
VERTEX
8
1
10
-92.414339
20
296.498777
30
-122.295418
0
VERTEX
8
1
10
-105.214339
20
296.498777
30
-122.295418
0
VERTEX
8
1
10
-105.214339
20
295.120902
30
-118.509737
0
SEQEND
0
POLYLINE
8
1
62
0
66
1
70
9
0
VERTEX
8
1
10
-92.414339
20
296.498777
30
-122.295418
0
VERTEX
8
1
10
-92.414339
20
296.498777
30
-126.324056
0
VERTEX
8
1
10
-105.214339
20
296.498777
30
-126.324056
0
VERTEX
8
1
10
-105.214339
20
296.498777
30
-122.295418
0
SEQEND
0
POLYLINE
8
1
62
0
66
1
70
9
0
VERTEX
8
1
10
-92.414339
20
296.498777
30
-126.324056
0
VERTEX
8
1
10
-92.414339
20
295.120902
30
-130.109737
0
VERTEX
8
1
10
-105.214339
20
295.120902
30
-130.109737
0
VERTEX
8
1
10
-105.214339
20
296.498777
30
-126.324056
0
SEQEND
0
POLYLINE
8
1
62
0
66
1
70
9
0
VERTEX
8
1
10
-92.414339
20
295.120902
30
-130.109737
0
VERTEX
8
1
10
-92.414339
20
292.531343
30
-133.195853
0
VERTEX
8
1
10
-105.214339
20
292.531343
30
-133.195853
0
VERTEX
8
1
10
-105.214339
20
295.120902
30
-130.109737
0
SEQEND
0
POLYLINE
8
1
62
0
66
1
70
9
0
VERTEX
8
1
10
-92.414339
20
292.531343
30
-133.195853
0
VERTEX
8
1
10
-92.414339
20
289.042441
30
-135.210172
0
VERTEX
8
1
10
-105.214339
20
289.042441
30
-135.210172
0
VERTEX
8
1
10
-105.214339
20
292.531343
30
-133.195853
0
SEQEND
0
POLYLINE
8
1
62
0
66
1
70
9
0
VERTEX
8
1
10
-80.414339
20
285.075007
30
-138.309737
0
VERTEX
8
1
10
-80.414339
20
280.286725
30
-137.465434
0
VERTEX
8
1
10
-92.414339
20
281.107573
30
-135.210172
0
VERTEX
8
1
10
-92.414339
20
285.075007
30
-135.909737
0
SEQEND
0
POLYLINE
8
1
62
0
66
1
70
9
0
VERTEX
8
1
10
-80.414339
20
280.286725
30
-137.465434
0
VERTEX
8
1
10
-80.414339
20
276.075980
30
-135.034359
0
VERTEX
8
1
10
-92.414339
20
277.618671
30
-133.195853
0
VERTEX
8
1
10
-92.414339
20
281.107573
30
-135.210172
0
SEQEND
0
POLYLINE
8
1
62
0
66
1
70
9
0
VERTEX
8
1
10
-80.414339
20
276.075980
30
-135.034359
0
VERTEX
8
1
10
-80.414339
20
272.950651
30
-131.309737
0
VERTEX
8
1
10
-92.414339
20
275.029112
30
-130.109737
0
VERTEX
8
1
10
-92.414339
20
277.618671
30
-133.195853
0
SEQEND
0
POLYLINE
8
1
62
0
66
1
70
9
0
VERTEX
8
1
10
-80.414339
20
272.950651
30
-131.309737
0
VERTEX
8
1
10
-80.414339
20
271.287698
30
-126.740812
0
VERTEX
8
1
10
-92.414339
20
273.651237
30
-126.324056
0
VERTEX
8
1
10
-92.414339
20
275.029112
30
-130.109737
0
SEQEND
0
POLYLINE
8
1
62
0
66
1
70
9
0
VERTEX
8
1
10
-80.414339
20
271.287698
30
-126.740812
0
VERTEX
8
1
10
-80.414339
20
271.287698
30
-121.878663
0
VERTEX
8
1
10
-92.414339
20
273.651237
30
-122.295418
0
VERTEX
8
1
10
-92.414339
20
273.651237
30
-126.324056
0
SEQEND
0
POLYLINE
8
1
62
0
66
1
70
9
0
VERTEX
8
1
10
-80.414339
20
271.287698
30
-121.878663
0
VERTEX
8
1
10
-80.414339
20
272.950651
30
-117.309737
0
VERTEX
8
1
10
-92.414339
20
275.029112
30
-118.509737
0
VERTEX
8
1
10
-92.414339
20
273.651237
30
-122.295418
0
SEQEND
0
POLYLINE
8
1
62
0
66
1
70
9
0
VERTEX
8
1
10
-80.414339
20
272.950651
30
-117.309737
0
VERTEX
8
1
10
-80.414339
20
276.075980
30
-113.585115
0
VERTEX
8
1
10
-92.414339
20
277.618671
30
-115.423622
0
VERTEX
8
1
10
-92.414339
20
275.029112
30
-118.509737
0
SEQEND
0
POLYLINE
8
1
62
0
66
1
70
9
0
VERTEX
8
1
10
-80.414339
20
276.075980
30
-113.585115
0
VERTEX
8
1
10
-80.414339
20
280.286725
30
-111.154041
0
VERTEX
8
1
10
-92.414339
20
281.107573
30
-113.409303
0
VERTEX
8
1
10
-92.414339
20
277.618671
30
-115.423622
0
SEQEND
0
POLYLINE
8
1
62
0
66
1
70
9
0
VERTEX
8
1
10
-80.414339
20
280.286725
30
-111.154041
0
VERTEX
8
1
10
-80.414339
20
285.075007
30
-110.309737
0
VERTEX
8
1
10
-92.414339
20
285.075007
30
-112.709737
0
VERTEX
8
1
10
-92.414339
20
281.107573
30
-113.409303
0
SEQEND
0
POLYLINE
8
1
62
0
66
1
70
9
0
VERTEX
8
1
10
-80.414339
20
285.075007
30
-110.309737
0
VERTEX
8
1
10
-80.414339
20
289.863289
30
-111.154041
0
VERTEX
8
1
10
-92.414339
20
289.042441
30
-113.409303
0
VERTEX
8
1
10
-92.414339
20
285.075007
30
-112.709737
0
SEQEND
0
POLYLINE
8
1
62
0
66
1
70
9
0
VERTEX
8
1
10
-80.414339
20
289.863289
30
-111.154041
0
VERTEX
8
1
10
-80.414339
20
294.074034
30
-113.585115
0
VERTEX
8
1
10
-92.414339
20
292.531343
30
-115.423622
0
VERTEX
8
1
10
-92.414339
20
289.042441
30
-113.409303
0
SEQEND
0
POLYLINE
8
1
62
0
66
1
70
9
0
VERTEX
8
1
10
-80.414339
20
294.074034
30
-113.585115
0
VERTEX
8
1
10
-80.414339
20
297.199363
30
-117.309737
0
VERTEX
8
1
10
-92.414339
20
295.120902
30
-118.509737
0
VERTEX
8
1
10
-92.414339
20
292.531343
30
-115.423622
0
SEQEND
0
POLYLINE
8
1
62
0
66
1
70
9
0
VERTEX
8
1
10
-80.414339
20
297.199363
30
-117.309737
0
VERTEX
8
1
10
-80.414339
20
298.862316
30
-121.878663
0
VERTEX
8
1
10
-92.414339
20
296.498777
30
-122.295418
0
VERTEX
8
1
10
-92.414339
20
295.120902
30
-118.509737
0
SEQEND
0
POLYLINE
8
1
62
0
66
1
70
9
0
VERTEX
8
1
10
-80.414339
20
298.862316
30
-121.878663
0
VERTEX
8
1
10
-80.414339
20
298.862316
30
-126.740812
0
VERTEX
8
1
10
-92.414339
20
296.498777
30
-126.324056
0
VERTEX
8
1
10
-92.414339
20
296.498777
30
-122.295418
0
SEQEND
0
POLYLINE
8
1
62
0
66
1
70
9
0
VERTEX
8
1
10
-80.414339
20
298.862316
30
-126.740812
0
VERTEX
8
1
10
-80.414339
20
297.199363
30
-131.309737
0
VERTEX
8
1
10
-92.414339
20
295.120902
30
-130.109737
0
VERTEX
8
1
10
-92.414339
20
296.498777
30
-126.324056
0
SEQEND
0
POLYLINE
8
1
62
0
66
1
70
9
0
VERTEX
8
1
10
-80.414339
20
297.199363
30
-131.309737
0
VERTEX
8
1
10
-80.414339
20
294.074034
30
-135.034359
0
VERTEX
8
1
10
-92.414339
20
292.531343
30
-133.195853
0
VERTEX
8
1
10
-92.414339
20
295.120902
30
-130.109737
0
SEQEND
0
POLYLINE
8
1
62
0
66
1
70
9
0
VERTEX
8
1
10
-80.414339
20
294.074034
30
-135.034359
0
VERTEX
8
1
10
-80.414339
20
289.863289
30
-137.465434
0
VERTEX
8
1
10
-92.414339
20
289.042441
30
-135.210172
0
VERTEX
8
1
10
-92.414339
20
292.531343
30
-133.195853
0
SEQEND
0
POLYLINE
8
1
62
0
66
1
70
9
0
VERTEX
8
1
10
-80.414339
20
289.863289
30
-137.465434
0
VERTEX
8
1
10
-80.414339
20
285.075007
30
-138.309737
0
VERTEX
8
1
10
-92.414339
20
285.075007
30
-135.909737
0
VERTEX
8
1
10
-92.414339
20
289.042441
30
-135.210172
0
SEQEND
0
POLYLINE
8
1
62
0
66
1
70
9
0
VERTEX
8
1
10
-105.214339
20
285.075007
30
-135.909737
0
VERTEX
8
1
10
-105.214339
20
281.107573
30
-135.210172
0
VERTEX
8
1
10
-111.787883
20
281.607192
30
-133.837480
0
VERTEX
8
1
10
-111.787883
20
285.075007
30
-134.448950
0
SEQEND
0
POLYLINE
8
1
62
0
66
1
70
9
0
VERTEX
8
1
10
-105.214339
20
281.107573
30
-135.210172
0
VERTEX
8
1
10
-105.214339
20
277.618671
30
-133.195853
0
VERTEX
8
1
10
-111.787883
20
278.557647
30
-132.076824
0
VERTEX
8
1
10
-111.787883
20
281.607192
30
-133.837480
0
SEQEND
0
POLYLINE
8
1
62
0
66
1
70
9
0
VERTEX
8
1
10
-105.214339
20
277.618671
30
-133.195853
0
VERTEX
8
1
10
-105.214339
20
275.029112
30
-130.109737
0
VERTEX
8
1
10
-111.787883
20
276.294192
30
-129.379343
0
VERTEX
8
1
10
-111.787883
20
278.557647
30
-132.076824
0
SEQEND
0
POLYLINE
8
1
62
0
66
1
70
9
0
VERTEX
8
1
10
-105.214339
20
275.029112
30
-130.109737
0
VERTEX
8
1
10
-105.214339
20
273.651237
30
-126.324056
0
VERTEX
8
1
10
-111.787883
20
275.089832
30
-126.070393
0
VERTEX
8
1
10
-111.787883
20
276.294192
30
-129.379343
0
SEQEND
0
POLYLINE
8
1
62
0
66
1
70
9
0
VERTEX
8
1
10
-105.214339
20
273.651237
30
-126.324056
0
VERTEX
8
1
10
-105.214339
20
273.651237
30
-122.295418
0
VERTEX
8
1
10
-111.787883
20
275.089832
30
-122.549081
0
VERTEX
8
1
10
-111.787883
20
275.089832
30
-126.070393
0
SEQEND
0
POLYLINE
8
1
62
0
66
1
70
9
0
VERTEX
8
1
10
-105.214339
20
273.651237
30
-122.295418
0
VERTEX
8
1
10
-105.214339
20
275.029112
30
-118.509737
0
VERTEX
8
1
10
-111.787883
20
276.294192
30
-119.240131
0
VERTEX
8
1
10
-111.787883
20
275.089832
30
-122.549081
0
SEQEND
0
POLYLINE
8
1
62
0
66
1
70
9
0
VERTEX
8
1
10
-105.214339
20
275.029112
30
-118.509737
0
VERTEX
8
1
10
-105.214339
20
277.618671
30
-115.423622
0
VERTEX
8
1
10
-111.787883
20
278.557647
30
-116.542650
0
VERTEX
8
1
10
-111.787883
20
276.294192
30
-119.240131
0
SEQEND
0
POLYLINE
8
1
62
0
66
1
70
9
0
VERTEX
8
1
10
-105.214339
20
277.618671
30
-115.423622
0
VERTEX
8
1
10
-105.214339
20
281.107573
30
-113.409303
0
VERTEX
8
1
10
-111.787883
20
281.607192
30
-114.781994
0
VERTEX
8
1
10
-111.787883
20
278.557647
30
-116.542650
0
SEQEND
0
POLYLINE
8
1
62
0
66
1
70
9
0
VERTEX
8
1
10
-105.214339
20
281.107573
30
-113.409303
0
VERTEX
8
1
10
-105.214339
20
285.075007
30
-112.709737
0
VERTEX
8
1
10
-111.787883
20
285.075007
30
-114.170525
0
VERTEX
8
1
10
-111.787883
20
281.607192
30
-114.781994
0
SEQEND
0
POLYLINE
8
1
62
0
66
1
70
9
0
VERTEX
8
1
10
-105.214339
20
285.075007
30
-112.709737
0
VERTEX
8
1
10
-105.214339
20
289.042441
30
-113.409303
0
VERTEX
8
1
10
-111.787883
20
288.542822
30
-114.781994
0
VERTEX
8
1
10
-111.787883
20
285.075007
30
-114.170525
0
SEQEND
0
POLYLINE
8
1
62
0
66
1
70
9
0
VERTEX
8
1
10
-105.214339
20
289.042441
30
-113.409303
0
VERTEX
8
1
10
-105.214339
20
292.531343
30
-115.423622
0
VERTEX
8
1
10
-111.787883
20
291.592367
30
-116.542650
0
VERTEX
8
1
10
-111.787883
20
288.542822
30
-114.781994
0
SEQEND
0
POLYLINE
8
1
62
0
66
1
70
9
0
VERTEX
8
1
10
-105.214339
20
292.531343
30
-115.423622
0
VERTEX
8
1
10
-105.214339
20
295.120902
30
-118.509737
0
VERTEX
8
1
10
-111.787883
20
293.855822
30
-119.240131
0
VERTEX
8
1
10
-111.787883
20
291.592367
30
-116.542650
0
SEQEND
0
POLYLINE
8
1
62
0
66
1
70
9
0
VERTEX
8
1
10
-105.214339
20
295.120902
30
-118.509737
0
VERTEX
8
1
10
-105.214339
20
296.498777
30
-122.295418
0
VERTEX
8
1
10
-111.787883
20
295.060182
30
-122.549081
0
VERTEX
8
1
10
-111.787883
20
293.855822
30
-119.240131
0
SEQEND
0
POLYLINE
8
1
62
0
66
1
70
9
0
VERTEX
8
1
10
-105.214339
20
296.498777
30
-122.295418
0
VERTEX
8
1
10
-105.214339
20
296.498777
30
-126.324056
0
VERTEX
8
1
10
-111.787883
20
295.060182
30
-126.070393
0
VERTEX
8
1
10
-111.787883
20
295.060182
30
-122.549081
0
SEQEND
0
POLYLINE
8
1
62
0
66
1
70
9
0
VERTEX
8
1
10
-105.214339
20
296.498777
30
-126.324056
0
VERTEX
8
1
10
-105.214339
20
295.120902
30
-130.109737
0
VERTEX
8
1
10
-111.787883
20
293.855822
30
-129.379343
0
VERTEX
8
1
10
-111.787883
20
295.060182
30
-126.070393
0
SEQEND
0
POLYLINE
8
1
62
0
66
1
70
9
0
VERTEX
8
1
10
-105.214339
20
295.120902
30
-130.109737
0
VERTEX
8
1
10
-105.214339
20
292.531343
30
-133.195853
0
VERTEX
8
1
10
-111.787883
20
291.592367
30
-132.076824
0
VERTEX
8
1
10
-111.787883
20
293.855822
30
-129.379343
0
SEQEND
0
POLYLINE
8
1
62
0
66
1
70
9
0
VERTEX
8
1
10
-105.214339
20
292.531343
30
-133.195853
0
VERTEX
8
1
10
-105.214339
20
289.042441
30
-135.210172
0
VERTEX
8
1
10
-111.787883
20
288.542822
30
-133.837480
0
VERTEX
8
1
10
-111.787883
20
291.592367
30
-132.076824
0
SEQEND
0
POLYLINE
8
1
62
0
66
1
70
9
0
VERTEX
8
1
10
-105.214339
20
289.042441
30
-135.210172
0
VERTEX
8
1
10
-105.214339
20
285.075007
30
-135.909737
0
VERTEX
8
1
10
-111.787883
20
285.075007
30
-134.448950
0
VERTEX
8
1
10
-111.787883
20
288.542822
30
-133.837480
0
SEQEND
0
POLYLINE
8
1
62
0
66
1
70
9
0
VERTEX
8
1
10
-112.414339
20
281.874293
30
-133.103628
0
VERTEX
8
1
10
-112.414339
20
279.059632
30
-131.478582
0
VERTEX
8
1
10
-112.414339
20
276.970514
30
-128.988869
0
VERTEX
8
1
10
-112.414339
20
275.858917
30
-125.934782
0
VERTEX
8
1
10
-112.414339
20
275.858917
30
-122.684692
0
VERTEX
8
1
10
-112.414339
20
276.970514
30
-119.630606
0
VERTEX
8
1
10
-112.414339
20
279.059632
30
-117.140892
0
VERTEX
8
1
10
-112.414339
20
281.874293
30
-115.515847
0
VERTEX
8
1
10
-112.414339
20
285.075007
30
-114.951474
0
VERTEX
8
1
10
-112.414339
20
288.275721
30
-115.515847
0
VERTEX
8
1
10
-112.414339
20
291.090382
30
-117.140892
0
VERTEX
8
1
10
-112.414339
20
293.179500
30
-119.630606
0
VERTEX
8
1
10
-112.414339
20
294.291097
30
-122.684692
0
VERTEX
8
1
10
-112.414339
20
294.291097
30
-125.934782
0
VERTEX
8
1
10
-112.414339
20
293.179500
30
-128.988869
0
VERTEX
8
1
10
-112.414339
20
291.090382
30
-131.478582
0
VERTEX
8
1
10
-112.414339
20
288.275721
30
-133.103628
0
VERTEX
8
1
10
-112.414339
20
285.075007
30
-133.668000
0
SEQEND
0
POLYLINE
8
1
62
0
66
1
70
9
0
VERTEX
8
1
10
-112.414339
20
279.059632
30
-131.478582
0
VERTEX
8
1
10
-112.414339
20
281.874293
30
-133.103628
0
VERTEX
8
1
10
-112.369066
20
281.783553
30
-133.352933
0
VERTEX
8
1
10
-112.369066
20
278.889097
30
-131.681818
0
SEQEND
0
POLYLINE
8
1
62
0
66
1
70
9
0
VERTEX
8
1
10
-112.037049
20
278.623049
30
-131.998882
0
VERTEX
8
1
10
-112.037049
20
281.641992
30
-133.741869
0
VERTEX
8
1
10
-111.787883
20
281.607192
30
-133.837480
0
VERTEX
8
1
10
-111.787883
20
278.557647
30
-132.076824
0
SEQEND
0
POLYLINE
8
1
62
0
66
1
70
9
0
VERTEX
8
1
10
-112.414339
20
281.874293
30
-133.103628
0
VERTEX
8
1
10
-112.414339
20
285.075007
30
-133.668000
0
VERTEX
8
1
10
-112.369066
20
285.075007
30
-133.933305
0
VERTEX
8
1
10
-112.369066
20
281.783553
30
-133.352933
0
SEQEND
0
POLYLINE
8
1
62
0
66
1
70
9
0
VERTEX
8
1
10
-112.037049
20
281.641992
30
-133.741869
0
VERTEX
8
1
10
-112.037049
20
285.075007
30
-134.347202
0
VERTEX
8
1
10
-111.787883
20
285.075007
30
-134.448950
0
VERTEX
8
1
10
-111.787883
20
281.607192
30
-133.837480
0
SEQEND
0
POLYLINE
8
1
62
0
66
1
70
9
0
VERTEX
8
1
10
-112.414339
20
285.075007
30
-133.668000
0
VERTEX
8
1
10
-112.414339
20
288.275721
30
-133.103628
0
VERTEX
8
1
10
-112.369066
20
288.366461
30
-133.352933
0
VERTEX
8
1
10
-112.369066
20
285.075007
30
-133.933305
0
SEQEND
0
POLYLINE
8
1
62
0
66
1
70
9
0
VERTEX
8
1
10
-112.037049
20
285.075007
30
-134.347202
0
VERTEX
8
1
10
-112.037049
20
288.508022
30
-133.741869
0
VERTEX
8
1
10
-111.787883
20
288.542822
30
-133.837480
0
VERTEX
8
1
10
-111.787883
20
285.075007
30
-134.448950
0
SEQEND
0
POLYLINE
8
1
62
0
66
1
70
9
0
VERTEX
8
1
10
-112.414339
20
288.275721
30
-133.103628
0
VERTEX
8
1
10
-112.414339
20
291.090382
30
-131.478582
0
VERTEX
8
1
10
-112.369066
20
291.260917
30
-131.681818
0
VERTEX
8
1
10
-112.369066
20
288.366461
30
-133.352933
0
SEQEND
0
POLYLINE
8
1
62
0
66
1
70
9
0
VERTEX
8
1
10
-112.037049
20
288.508022
30
-133.741869
0
VERTEX
8
1
10
-112.037049
20
291.526965
30
-131.998882
0
VERTEX
8
1
10
-111.787883
20
291.592367
30
-132.076824
0
VERTEX
8
1
10
-111.787883
20
288.542822
30
-133.837480
0
SEQEND
0
POLYLINE
8
1
62
0
66
1
70
9
0
VERTEX
8
1
10
-112.414339
20
291.090382
30
-131.478582
0
VERTEX
8
1
10
-112.414339
20
293.179500
30
-128.988869
0
VERTEX
8
1
10
-112.369066
20
293.409261
30
-129.121521
0
VERTEX
8
1
10
-112.369066
20
291.260917
30
-131.681818
0
SEQEND
0
POLYLINE
8
1
62
0
66
1
70
9
0
VERTEX
8
1
10
-112.037049
20
291.526965
30
-131.998882
0
VERTEX
8
1
10
-112.037049
20
293.767707
30
-129.328470
0
VERTEX
8
1
10
-111.787883
20
293.855822
30
-129.379343
0
VERTEX
8
1
10
-111.787883
20
291.592367
30
-132.076824
0
SEQEND
0
POLYLINE
8
1
62
0
66
1
70
9
0
VERTEX
8
1
10
-112.414339
20
293.179500
30
-128.988869
0
VERTEX
8
1
10
-112.414339
20
294.291097
30
-125.934782
0
VERTEX
8
1
10
-112.369066
20
294.552371
30
-125.980852
0
VERTEX
8
1
10
-112.369066
20
293.409261
30
-129.121521
0
SEQEND
0
POLYLINE
8
1
62
0
66
1
70
9
0
VERTEX
8
1
10
-112.037049
20
293.767707
30
-129.328470
0
VERTEX
8
1
10
-112.037049
20
294.959980
30
-126.052725
0
VERTEX
8
1
10
-111.787883
20
295.060182
30
-126.070393
0
VERTEX
8
1
10
-111.787883
20
293.855822
30
-129.379343
0
SEQEND
0
POLYLINE
8
1
62
0
66
1
70
9
0
VERTEX
8
1
10
-112.414339
20
294.291097
30
-125.934782
0
VERTEX
8
1
10
-112.414339
20
294.291097
30
-122.684692
0
VERTEX
8
1
10
-112.369066
20
294.552371
30
-122.638622
0
VERTEX
8
1
10
-112.369066
20
294.552371
30
-125.980852
0
SEQEND
0
POLYLINE
8
1
62
0
66
1
70
9
0
VERTEX
8
1
10
-112.037049
20
294.959980
30
-126.052725
0
VERTEX
8
1
10
-112.037049
20
294.959980
30
-122.566750
0
VERTEX
8
1
10
-111.787883
20
295.060182
30
-122.549081
0
VERTEX
8
1
10
-111.787883
20
295.060182
30
-126.070393
0
SEQEND
0
POLYLINE
8
1
62
0
66
1
70
9
0
VERTEX
8
1
10
-112.414339
20
294.291097
30
-122.684692
0
VERTEX
8
1
10
-112.414339
20
293.179500
30
-119.630606
0
VERTEX
8
1
10
-112.369066
20
293.409261
30
-119.497953
0
VERTEX
8
1
10
-112.369066
20
294.552371
30
-122.638622
0
SEQEND
0
POLYLINE
8
1
62
0
66
1
70
9
0
VERTEX
8
1
10
-112.037049
20
294.959980
30
-122.566750
0
VERTEX
8
1
10
-112.037049
20
293.767707
30
-119.291005
0
VERTEX
8
1
10
-111.787883
20
293.855822
30
-119.240131
0
VERTEX
8
1
10
-111.787883
20
295.060182
30
-122.549081
0
SEQEND
0
POLYLINE
8
1
62
0
66
1
70
9
0
VERTEX
8
1
10
-112.414339
20
293.179500
30
-119.630606
0
VERTEX
8
1
10
-112.414339
20
291.090382
30
-117.140892
0
VERTEX
8
1
10
-112.369066
20
291.260917
30
-116.937657
0
VERTEX
8
1
10
-112.369066
20
293.409261
30
-119.497953
0
SEQEND
0
POLYLINE
8
1
62
0
66
1
70
9
0
VERTEX
8
1
10
-112.037049
20
293.767707
30
-119.291005
0
VERTEX
8
1
10
-112.037049
20
291.526965
30
-116.620593
0
VERTEX
8
1
10
-111.787883
20
291.592367
30
-116.542650
0
VERTEX
8
1
10
-111.787883
20
293.855822
30
-119.240131
0
SEQEND
0
POLYLINE
8
1
62
0
66
1
70
9
0
VERTEX
8
1
10
-112.414339
20
291.090382
30
-117.140892
0
VERTEX
8
1
10
-112.414339
20
288.275721
30
-115.515847
0
VERTEX
8
1
10
-112.369066
20
288.366461
30
-115.266542
0
VERTEX
8
1
10
-112.369066
20
291.260917
30
-116.937657
0
SEQEND
0
POLYLINE
8
1
62
0
66
1
70
9
0
VERTEX
8
1
10
-112.037049
20
291.526965
30
-116.620593
0
VERTEX
8
1
10
-112.037049
20
288.508022
30
-114.877605
0
VERTEX
8
1
10
-111.787883
20
288.542822
30
-114.781994
0
VERTEX
8
1
10
-111.787883
20
291.592367
30
-116.542650
0
SEQEND
0
POLYLINE
8
1
62
0
66
1
70
9
0
VERTEX
8
1
10
-112.414339
20
288.275721
30
-115.515847
0
VERTEX
8
1
10
-112.414339
20
285.075007
30
-114.951474
0
VERTEX
8
1
10
-112.369066
20
285.075007
30
-114.686170
0
VERTEX
8
1
10
-112.369066
20
288.366461
30
-115.266542
0
SEQEND
0
POLYLINE
8
1
62
0
66
1
70
9
0
VERTEX
8
1
10
-112.037049
20
288.508022
30
-114.877605
0
VERTEX
8
1
10
-112.037049
20
285.075007
30
-114.272272
0
VERTEX
8
1
10
-111.787883
20
285.075007
30
-114.170525
0
VERTEX
8
1
10
-111.787883
20
288.542822
30
-114.781994
0
SEQEND
0
POLYLINE
8
1
62
0
66
1
70
9
0
VERTEX
8
1
10
-112.414339
20
285.075007
30
-114.951474
0
VERTEX
8
1
10
-112.414339
20
281.874293
30
-115.515847
0
VERTEX
8
1
10
-112.369066
20
281.783553
30
-115.266542
0
VERTEX
8
1
10
-112.369066
20
285.075007
30
-114.686170
0
SEQEND
0
POLYLINE
8
1
62
0
66
1
70
9
0
VERTEX
8
1
10
-112.037049
20
285.075007
30
-114.272272
0
VERTEX
8
1
10
-112.037049
20
281.641992
30
-114.877605
0
VERTEX
8
1
10
-111.787883
20
281.607192
30
-114.781994
0
VERTEX
8
1
10
-111.787883
20
285.075007
30
-114.170525
0
SEQEND
0
POLYLINE
8
1
62
0
66
1
70
9
0
VERTEX
8
1
10
-112.414339
20
281.874293
30
-115.515847
0
VERTEX
8
1
10
-112.414339
20
279.059632
30
-117.140892
0
VERTEX
8
1
10
-112.369066
20
278.889097
30
-116.937657
0
VERTEX
8
1
10
-112.369066
20
281.783553
30
-115.266542
0
SEQEND
0
POLYLINE
8
1
62
0
66
1
70
9
0
VERTEX
8
1
10
-112.037049
20
281.641992
30
-114.877605
0
VERTEX
8
1
10
-112.037049
20
278.623049
30
-116.620593
0
VERTEX
8
1
10
-111.787883
20
278.557647
30
-116.542650
0
VERTEX
8
1
10
-111.787883
20
281.607192
30
-114.781994
0
SEQEND
0
POLYLINE
8
1
62
0
66
1
70
9
0
VERTEX
8
1
10
-112.414339
20
279.059632
30
-117.140892
0
VERTEX
8
1
10
-112.414339
20
276.970514
30
-119.630606
0
VERTEX
8
1
10
-112.369066
20
276.740753
30
-119.497953
0
VERTEX
8
1
10
-112.369066
20
278.889097
30
-116.937657
0
SEQEND
0
POLYLINE
8
1
62
0
66
1
70
9
0
VERTEX
8
1
10
-112.037049
20
278.623049
30
-116.620593
0
VERTEX
8
1
10
-112.037049
20
276.382307
30
-119.291005
0
VERTEX
8
1
10
-111.787883
20
276.294192
30
-119.240131
0
VERTEX
8
1
10
-111.787883
20
278.557647
30
-116.542650
0
SEQEND
0
POLYLINE
8
1
62
0
66
1
70
9
0
VERTEX
8
1
10
-112.414339
20
276.970514
30
-119.630606
0
VERTEX
8
1
10
-112.414339
20
275.858917
30
-122.684692
0
VERTEX
8
1
10
-112.369066
20
275.597643
30
-122.638622
0
VERTEX
8
1
10
-112.369066
20
276.740753
30
-119.497953
0
SEQEND
0
POLYLINE
8
1
62
0
66
1
70
9
0
VERTEX
8
1
10
-112.037049
20
276.382307
30
-119.291005
0
VERTEX
8
1
10
-112.037049
20
275.190034
30
-122.566750
0
VERTEX
8
1
10
-111.787883
20
275.089832
30
-122.549081
0
VERTEX
8
1
10
-111.787883
20
276.294192
30
-119.240131
0
SEQEND
0
POLYLINE
8
1
62
0
66
1
70
9
0
VERTEX
8
1
10
-112.414339
20
275.858917
30
-122.684692
0
VERTEX
8
1
10
-112.414339
20
275.858917
30
-125.934782
0
VERTEX
8
1
10
-112.369066
20
275.597643
30
-125.980852
0
VERTEX
8
1
10
-112.369066
20
275.597643
30
-122.638622
0
SEQEND
0
POLYLINE
8
1
62
0
66
1
70
9
0
VERTEX
8
1
10
-112.037049
20
275.190034
30
-122.566750
0
VERTEX
8
1
10
-112.037049
20
275.190034
30
-126.052725
0
VERTEX
8
1
10
-111.787883
20
275.089832
30
-126.070393
0
VERTEX
8
1
10
-111.787883
20
275.089832
30
-122.549081
0
SEQEND
0
POLYLINE
8
1
62
0
66
1
70
9
0
VERTEX
8
1
10
-112.414339
20
275.858917
30
-125.934782
0
VERTEX
8
1
10
-112.414339
20
276.970514
30
-128.988869
0
VERTEX
8
1
10
-112.369066
20
276.740753
30
-129.121521
0
VERTEX
8
1
10
-112.369066
20
275.597643
30
-125.980852
0
SEQEND
0
POLYLINE
8
1
62
0
66
1
70
9
0
VERTEX
8
1
10
-112.037049
20
275.190034
30
-126.052725
0
VERTEX
8
1
10
-112.037049
20
276.382307
30
-129.328470
0
VERTEX
8
1
10
-111.787883
20
276.294192
30
-129.379343
0
VERTEX
8
1
10
-111.787883
20
275.089832
30
-126.070393
0
SEQEND
0
POLYLINE
8
1
62
0
66
1
70
9
0
VERTEX
8
1
10
-112.414339
20
276.970514
30
-128.988869
0
VERTEX
8
1
10
-112.414339
20
279.059632
30
-131.478582
0
VERTEX
8
1
10
-112.369066
20
278.889097
30
-131.681818
0
VERTEX
8
1
10
-112.369066
20
276.740753
30
-129.121521
0
SEQEND
0
POLYLINE
8
1
62
0
66
1
70
9
0
VERTEX
8
1
10
-112.037049
20
276.382307
30
-129.328470
0
VERTEX
8
1
10
-112.037049
20
278.623049
30
-131.998882
0
VERTEX
8
1
10
-111.787883
20
278.557647
30
-132.076824
0
VERTEX
8
1
10
-111.787883
20
276.294192
30
-129.379343
0
SEQEND
0
POLYLINE
8
1
62
0
66
1
70
9
0
VERTEX
8
1
10
-112.369066
20
278.889097
30
-131.681818
0
VERTEX
8
1
10
-112.369066
20
281.783553
30
-133.352933
0
VERTEX
8
1
10
-112.238372
20
281.703084
30
-133.574021
0
SEQEND
0
POLYLINE
8
1
62
20
66
1
70
9
0
VERTEX
8
1
10
-112.369066
20
278.889097
30
-131.681818
0
VERTEX
8
1
10
-112.238372
20
281.703084
30
-133.574021
0
VERTEX
8
1
10
-112.238372
20
278.737864
30
-131.862050
0
SEQEND
0
POLYLINE
8
1
62
0
66
1
70
9
0
VERTEX
8
1
10
-112.238372
20
278.737864
30
-131.862050
0
VERTEX
8
1
10
-112.238372
20
281.703084
30
-133.574021
0
VERTEX
8
1
10
-112.037049
20
281.641992
30
-133.741869
0
SEQEND
0
POLYLINE
8
1
62
20
66
1
70
9
0
VERTEX
8
1
10
-112.238372
20
278.737864
30
-131.862050
0
VERTEX
8
1
10
-112.037049
20
281.641992
30
-133.741869
0
VERTEX
8
1
10
-112.037049
20
278.623049
30
-131.998882
0
SEQEND
0
POLYLINE
8
1
62
0
66
1
70
9
0
VERTEX
8
1
10
-112.369066
20
281.783553
30
-133.352933
0
VERTEX
8
1
10
-112.369066
20
285.075007
30
-133.933305
0
VERTEX
8
1
10
-112.238372
20
285.075007
30
-134.168582
0
SEQEND
0
POLYLINE
8
1
62
20
66
1
70
9
0
VERTEX
8
1
10
-112.369066
20
281.783553
30
-133.352933
0
VERTEX
8
1
10
-112.238372
20
285.075007
30
-134.168582
0
VERTEX
8
1
10
-112.238372
20
281.703084
30
-133.574021
0
SEQEND
0
POLYLINE
8
1
62
0
66
1
70
9
0
VERTEX
8
1
10
-112.238372
20
281.703084
30
-133.574021
0
VERTEX
8
1
10
-112.238372
20
285.075007
30
-134.168582
0
VERTEX
8
1
10
-112.037049
20
285.075007
30
-134.347202
0
SEQEND
0
POLYLINE
8
1
62
20
66
1
70
9
0
VERTEX
8
1
10
-112.238372
20
281.703084
30
-133.574021
0
VERTEX
8
1
10
-112.037049
20
285.075007
30
-134.347202
0
VERTEX
8
1
10
-112.037049
20
281.641992
30
-133.741869
0
SEQEND
0
POLYLINE
8
1
62
0
66
1
70
9
0
VERTEX
8
1
10
-112.369066
20
285.075007
30
-133.933305
0
VERTEX
8
1
10
-112.369066
20
288.366461
30
-133.352933
0
VERTEX
8
1
10
-112.238372
20
288.446930
30
-133.574021
0
SEQEND
0
POLYLINE
8
1
62
20
66
1
70
9
0
VERTEX
8
1
10
-112.369066
20
285.075007
30
-133.933305
0
VERTEX
8
1
10
-112.238372
20
288.446930
30
-133.574021
0
VERTEX
8
1
10
-112.238372
20
285.075007
30
-134.168582
0
SEQEND
0
POLYLINE
8
1
62
0
66
1
70
9
0
VERTEX
8
1
10
-112.238372
20
285.075007
30
-134.168582
0
VERTEX
8
1
10
-112.238372
20
288.446930
30
-133.574021
0
VERTEX
8
1
10
-112.037049
20
288.508022
30
-133.741869
0
SEQEND
0
POLYLINE
8
1
62
20
66
1
70
9
0
VERTEX
8
1
10
-112.238372
20
285.075007
30
-134.168582
0
VERTEX
8
1
10
-112.037049
20
288.508022
30
-133.741869
0
VERTEX
8
1
10
-112.037049
20
285.075007
30
-134.347202
0
SEQEND
0
POLYLINE
8
1
62
0
66
1
70
9
0
VERTEX
8
1
10
-112.369066
20
288.366461
30
-133.352933
0
VERTEX
8
1
10
-112.369066
20
291.260917
30
-131.681818
0
VERTEX
8
1
10
-112.238372
20
291.412150
30
-131.862050
0
SEQEND
0
POLYLINE
8
1
62
20
66
1
70
9
0
VERTEX
8
1
10
-112.369066
20
288.366461
30
-133.352933
0
VERTEX
8
1
10
-112.238372
20
291.412150
30
-131.862050
0
VERTEX
8
1
10
-112.238372
20
288.446930
30
-133.574021
0
SEQEND
0
POLYLINE
8
1
62
0
66
1
70
9
0
VERTEX
8
1
10
-112.238372
20
288.446930
30
-133.574021
0
VERTEX
8
1
10
-112.238372
20
291.412150
30
-131.862050
0
VERTEX
8
1
10
-112.037049
20
291.526965
30
-131.998882
0
SEQEND
0
POLYLINE
8
1
62
20
66
1
70
9
0
VERTEX
8
1
10
-112.238372
20
288.446930
30
-133.574021
0
VERTEX
8
1
10
-112.037049
20
291.526965
30
-131.998882
0
VERTEX
8
1
10
-112.037049
20
288.508022
30
-133.741869
0
SEQEND
0
POLYLINE
8
1
62
0
66
1
70
9
0
VERTEX
8
1
10
-112.369066
20
291.260917
30
-131.681818
0
VERTEX
8
1
10
-112.369066
20
293.409261
30
-129.121521
0
VERTEX
8
1
10
-112.238372
20
293.613017
30
-129.239160
0
SEQEND
0
POLYLINE
8
1
62
20
66
1
70
9
0
VERTEX
8
1
10
-112.369066
20
291.260917
30
-131.681818
0
VERTEX
8
1
10
-112.238372
20
293.613017
30
-129.239160
0
VERTEX
8
1
10
-112.238372
20
291.412150
30
-131.862050
0
SEQEND
0
POLYLINE
8
1
62
0
66
1
70
9
0
VERTEX
8
1
10
-112.238372
20
291.412150
30
-131.862050
0
VERTEX
8
1
10
-112.238372
20
293.613017
30
-129.239160
0
VERTEX
8
1
10
-112.037049
20
293.767707
30
-129.328470
0
SEQEND
0
POLYLINE
8
1
62
20
66
1
70
9
0
VERTEX
8
1
10
-112.238372
20
291.412150
30
-131.862050
0
VERTEX
8
1
10
-112.037049
20
293.767707
30
-129.328470
0
VERTEX
8
1
10
-112.037049
20
291.526965
30
-131.998882
0
SEQEND
0
POLYLINE
8
1
62
0
66
1
70
9
0
VERTEX
8
1
10
-112.369066
20
293.409261
30
-129.121521
0
VERTEX
8
1
10
-112.369066
20
294.552371
30
-125.980852
0
VERTEX
8
1
10
-112.238372
20
294.784074
30
-126.021708
0
SEQEND
0
POLYLINE
8
1
62
20
66
1
70
9
0
VERTEX
8
1
10
-112.369066
20
293.409261
30
-129.121521
0
VERTEX
8
1
10
-112.238372
20
294.784074
30
-126.021708
0
VERTEX
8
1
10
-112.238372
20
293.613017
30
-129.239160
0
SEQEND
0
POLYLINE
8
1
62
0
66
1
70
9
0
VERTEX
8
1
10
-112.238372
20
293.613017
30
-129.239160
0
VERTEX
8
1
10
-112.238372
20
294.784074
30
-126.021708
0
VERTEX
8
1
10
-112.037049
20
294.959980
30
-126.052725
0
SEQEND
0
POLYLINE
8
1
62
20
66
1
70
9
0
VERTEX
8
1
10
-112.238372
20
293.613017
30
-129.239160
0
VERTEX
8
1
10
-112.037049
20
294.959980
30
-126.052725
0
VERTEX
8
1
10
-112.037049
20
293.767707
30
-129.328470
0
SEQEND
0
POLYLINE
8
1
62
0
66
1
70
9
0
VERTEX
8
1
10
-112.369066
20
294.552371
30
-125.980852
0
VERTEX
8
1
10
-112.369066
20
294.552371
30
-122.638622
0
VERTEX
8
1
10
-112.238372
20
294.784074
30
-122.597767
0
SEQEND
0
POLYLINE
8
1
62
20
66
1
70
9
0
VERTEX
8
1
10
-112.369066
20
294.552371
30
-125.980852
0
VERTEX
8
1
10
-112.238372
20
294.784074
30
-122.597767
0
VERTEX
8
1
10
-112.238372
20
294.784074
30
-126.021708
0
SEQEND
0
POLYLINE
8
1
62
0
66
1
70
9
0
VERTEX
8
1
10
-112.238372
20
294.784074
30
-126.021708
0
VERTEX
8
1
10
-112.238372
20
294.784074
30
-122.597767
0
VERTEX
8
1
10
-112.037049
20
294.959980
30
-122.566750
0
SEQEND
0
POLYLINE
8
1
62
20
66
1
70
9
0
VERTEX
8
1
10
-112.238372
20
294.784074
30
-126.021708
0
VERTEX
8
1
10
-112.037049
20
294.959980
30
-122.566750
0
VERTEX
8
1
10
-112.037049
20
294.959980
30
-126.052725
0
SEQEND
0
POLYLINE
8
1
62
0
66
1
70
9
0
VERTEX
8
1
10
-112.369066
20
294.552371
30
-122.638622
0
VERTEX
8
1
10
-112.369066
20
293.409261
30
-119.497953
0
VERTEX
8
1
10
-112.238372
20
293.613017
30
-119.380315
0
SEQEND
0
POLYLINE
8
1
62
20
66
1
70
9
0
VERTEX
8
1
10
-112.369066
20
294.552371
30
-122.638622
0
VERTEX
8
1
10
-112.238372
20
293.613017
30
-119.380315
0
VERTEX
8
1
10
-112.238372
20
294.784074
30
-122.597767
0
SEQEND
0
POLYLINE
8
1
62
0
66
1
70
9
0
VERTEX
8
1
10
-112.238372
20
294.784074
30
-122.597767
0
VERTEX
8
1
10
-112.238372
20
293.613017
30
-119.380315
0
VERTEX
8
1
10
-112.037049
20
293.767707
30
-119.291005
0
SEQEND
0
POLYLINE
8
1
62
20
66
1
70
9
0
VERTEX
8
1
10
-112.238372
20
294.784074
30
-122.597767
0
VERTEX
8
1
10
-112.037049
20
293.767707
30
-119.291005
0
VERTEX
8
1
10
-112.037049
20
294.959980
30
-122.566750
0
SEQEND
0
POLYLINE
8
1
62
0
66
1
70
9
0
VERTEX
8
1
10
-112.369066
20
293.409261
30
-119.497953
0
VERTEX
8
1
10
-112.369066
20
291.260917
30
-116.937657
0
VERTEX
8
1
10
-112.238372
20
291.412150
30
-116.757424
0
SEQEND
0
POLYLINE
8
1
62
20
66
1
70
9
0
VERTEX
8
1
10
-112.369066
20
293.409261
30
-119.497953
0
VERTEX
8
1
10
-112.238372
20
291.412150
30
-116.757424
0
VERTEX
8
1
10
-112.238372
20
293.613017
30
-119.380315
0
SEQEND
0
POLYLINE
8
1
62
0
66
1
70
9
0
VERTEX
8
1
10
-112.238372
20
293.613017
30
-119.380315
0
VERTEX
8
1
10
-112.238372
20
291.412150
30
-116.757424
0
VERTEX
8
1
10
-112.037049
20
291.526965
30
-116.620593
0
SEQEND
0
POLYLINE
8
1
62
20
66
1
70
9
0
VERTEX
8
1
10
-112.238372
20
293.613017
30
-119.380315
0
VERTEX
8
1
10
-112.037049
20
291.526965
30
-116.620593
0
VERTEX
8
1
10
-112.037049
20
293.767707
30
-119.291005
0
SEQEND
0
POLYLINE
8
1
62
0
66
1
70
9
0
VERTEX
8
1
10
-112.369066
20
291.260917
30
-116.937657
0
VERTEX
8
1
10
-112.369066
20
288.366461
30
-115.266542
0
VERTEX
8
1
10
-112.238372
20
288.446930
30
-115.045454
0
SEQEND
0
POLYLINE
8
1
62
20
66
1
70
9
0
VERTEX
8
1
10
-112.369066
20
291.260917
30
-116.937657
0
VERTEX
8
1
10
-112.238372
20
288.446930
30
-115.045454
0
VERTEX
8
1
10
-112.238372
20
291.412150
30
-116.757424
0
SEQEND
0
POLYLINE
8
1
62
0
66
1
70
9
0
VERTEX
8
1
10
-112.238372
20
291.412150
30
-116.757424
0
VERTEX
8
1
10
-112.238372
20
288.446930
30
-115.045454
0
VERTEX
8
1
10
-112.037049
20
288.508022
30
-114.877605
0
SEQEND
0
POLYLINE
8
1
62
20
66
1
70
9
0
VERTEX
8
1
10
-112.238372
20
291.412150
30
-116.757424
0
VERTEX
8
1
10
-112.037049
20
288.508022
30
-114.877605
0
VERTEX
8
1
10
-112.037049
20
291.526965
30
-116.620593
0
SEQEND
0
POLYLINE
8
1
62
0
66
1
70
9
0
VERTEX
8
1
10
-112.369066
20
288.366461
30
-115.266542
0
VERTEX
8
1
10
-112.369066
20
285.075007
30
-114.686170
0
VERTEX
8
1
10
-112.238372
20
285.075007
30
-114.450893
0
SEQEND
0
POLYLINE
8
1
62
20
66
1
70
9
0
VERTEX
8
1
10
-112.369066
20
288.366461
30
-115.266542
0
VERTEX
8
1
10
-112.238372
20
285.075007
30
-114.450893
0
VERTEX
8
1
10
-112.238372
20
288.446930
30
-115.045454
0
SEQEND
0
POLYLINE
8
1
62
0
66
1
70
9
0
VERTEX
8
1
10
-112.238372
20
288.446930
30
-115.045454
0
VERTEX
8
1
10
-112.238372
20
285.075007
30
-114.450893
0
VERTEX
8
1
10
-112.037049
20
285.075007
30
-114.272272
0
SEQEND
0
POLYLINE
8
1
62
20
66
1
70
9
0
VERTEX
8
1
10
-112.238372
20
288.446930
30
-115.045454
0
VERTEX
8
1
10
-112.037049
20
285.075007
30
-114.272272
0
VERTEX
8
1
10
-112.037049
20
288.508022
30
-114.877605
0
SEQEND
0
POLYLINE
8
1
62
0
66
1
70
9
0
VERTEX
8
1
10
-112.369066
20
285.075007
30
-114.686170
0
VERTEX
8
1
10
-112.369066
20
281.783553
30
-115.266542
0
VERTEX
8
1
10
-112.238372
20
281.703084
30
-115.045454
0
SEQEND
0
POLYLINE
8
1
62
20
66
1
70
9
0
VERTEX
8
1
10
-112.369066
20
285.075007
30
-114.686170
0
VERTEX
8
1
10
-112.238372
20
281.703084
30
-115.045454
0
VERTEX
8
1
10
-112.238372
20
285.075007
30
-114.450893
0
SEQEND
0
POLYLINE
8
1
62
0
66
1
70
9
0
VERTEX
8
1
10
-112.238372
20
285.075007
30
-114.450893
0
VERTEX
8
1
10
-112.238372
20
281.703084
30
-115.045454
0
VERTEX
8
1
10
-112.037049
20
281.641992
30
-114.877605
0
SEQEND
0
POLYLINE
8
1
62
20
66
1
70
9
0
VERTEX
8
1
10
-112.238372
20
285.075007
30
-114.450893
0
VERTEX
8
1
10
-112.037049
20
281.641992
30
-114.877605
0
VERTEX
8
1
10
-112.037049
20
285.075007
30
-114.272272
0
SEQEND
0
POLYLINE
8
1
62
0
66
1
70
9
0
VERTEX
8
1
10
-112.369066
20
281.783553
30
-115.266542
0
VERTEX
8
1
10
-112.369066
20
278.889097
30
-116.937657
0
VERTEX
8
1
10
-112.238372
20
278.737864
30
-116.757424
0
SEQEND
0
POLYLINE
8
1
62
20
66
1
70
9
0
VERTEX
8
1
10
-112.369066
20
281.783553
30
-115.266542
0
VERTEX
8
1
10
-112.238372
20
278.737864
30
-116.757424
0
VERTEX
8
1
10
-112.238372
20
281.703084
30
-115.045454
0
SEQEND
0
POLYLINE
8
1
62
0
66
1
70
9
0
VERTEX
8
1
10
-112.238372
20
281.703084
30
-115.045454
0
VERTEX
8
1
10
-112.238372
20
278.737864
30
-116.757424
0
VERTEX
8
1
10
-112.037049
20
278.623049
30
-116.620593
0
SEQEND
0
POLYLINE
8
1
62
20
66
1
70
9
0
VERTEX
8
1
10
-112.238372
20
281.703084
30
-115.045454
0
VERTEX
8
1
10
-112.037049
20
278.623049
30
-116.620593
0
VERTEX
8
1
10
-112.037049
20
281.641992
30
-114.877605
0
SEQEND
0
POLYLINE
8
1
62
0
66
1
70
9
0
VERTEX
8
1
10
-112.369066
20
278.889097
30
-116.937657
0
VERTEX
8
1
10
-112.369066
20
276.740753
30
-119.497953
0
VERTEX
8
1
10
-112.238372
20
276.536997
30
-119.380315
0
SEQEND
0
POLYLINE
8
1
62
20
66
1
70
9
0
VERTEX
8
1
10
-112.369066
20
278.889097
30
-116.937657
0
VERTEX
8
1
10
-112.238372
20
276.536997
30
-119.380315
0
VERTEX
8
1
10
-112.238372
20
278.737864
30
-116.757424
0
SEQEND
0
POLYLINE
8
1
62
0
66
1
70
9
0
VERTEX
8
1
10
-112.238372
20
278.737864
30
-116.757424
0
VERTEX
8
1
10
-112.238372
20
276.536997
30
-119.380315
0
VERTEX
8
1
10
-112.037049
20
276.382307
30
-119.291005
0
SEQEND
0
POLYLINE
8
1
62
20
66
1
70
9
0
VERTEX
8
1
10
-112.238372
20
278.737864
30
-116.757424
0
VERTEX
8
1
10
-112.037049
20
276.382307
30
-119.291005
0
VERTEX
8
1
10
-112.037049
20
278.623049
30
-116.620593
0
SEQEND
0
POLYLINE
8
1
62
0
66
1
70
9
0
VERTEX
8
1
10
-112.369066
20
276.740753
30
-119.497953
0
VERTEX
8
1
10
-112.369066
20
275.597643
30
-122.638622
0
VERTEX
8
1
10
-112.238372
20
275.365940
30
-122.597767
0
SEQEND
0
POLYLINE
8
1
62
20
66
1
70
9
0
VERTEX
8
1
10
-112.369066
20
276.740753
30
-119.497953
0
VERTEX
8
1
10
-112.238372
20
275.365940
30
-122.597767
0
VERTEX
8
1
10
-112.238372
20
276.536997
30
-119.380315
0
SEQEND
0
POLYLINE
8
1
62
0
66
1
70
9
0
VERTEX
8
1
10
-112.238372
20
276.536997
30
-119.380315
0
VERTEX
8
1
10
-112.238372
20
275.365940
30
-122.597767
0
VERTEX
8
1
10
-112.037049
20
275.190034
30
-122.566750
0
SEQEND
0
POLYLINE
8
1
62
20
66
1
70
9
0
VERTEX
8
1
10
-112.238372
20
276.536997
30
-119.380315
0
VERTEX
8
1
10
-112.037049
20
275.190034
30
-122.566750
0
VERTEX
8
1
10
-112.037049
20
276.382307
30
-119.291005
0
SEQEND
0
POLYLINE
8
1
62
0
66
1
70
9
0
VERTEX
8
1
10
-112.369066
20
275.597643
30
-122.638622
0
VERTEX
8
1
10
-112.369066
20
275.597643
30
-125.980852
0
VERTEX
8
1
10
-112.238372
20
275.365940
30
-126.021708
0
SEQEND
0
POLYLINE
8
1
62
20
66
1
70
9
0
VERTEX
8
1
10
-112.369066
20
275.597643
30
-122.638622
0
VERTEX
8
1
10
-112.238372
20
275.365940
30
-126.021708
0
VERTEX
8
1
10
-112.238372
20
275.365940
30
-122.597767
0
SEQEND
0
POLYLINE
8
1
62
0
66
1
70
9
0
VERTEX
8
1
10
-112.238372
20
275.365940
30
-122.597767
0
VERTEX
8
1
10
-112.238372
20
275.365940
30
-126.021708
0
VERTEX
8
1
10
-112.037049
20
275.190034
30
-126.052725
0
SEQEND
0
POLYLINE
8
1
62
20
66
1
70
9
0
VERTEX
8
1
10
-112.238372
20
275.365940
30
-122.597767
0
VERTEX
8
1
10
-112.037049
20
275.190034
30
-126.052725
0
VERTEX
8
1
10
-112.037049
20
275.190034
30
-122.566750
0
SEQEND
0
POLYLINE
8
1
62
0
66
1
70
9
0
VERTEX
8
1
10
-112.369066
20
275.597643
30
-125.980852
0
VERTEX
8
1
10
-112.369066
20
276.740753
30
-129.121521
0
VERTEX
8
1
10
-112.238372
20
276.536997
30
-129.239160
0
SEQEND
0
POLYLINE
8
1
62
20
66
1
70
9
0
VERTEX
8
1
10
-112.369066
20
275.597643
30
-125.980852
0
VERTEX
8
1
10
-112.238372
20
276.536997
30
-129.239160
0
VERTEX
8
1
10
-112.238372
20
275.365940
30
-126.021708
0
SEQEND
0
POLYLINE
8
1
62
0
66
1
70
9
0
VERTEX
8
1
10
-112.238372
20
275.365940
30
-126.021708
0
VERTEX
8
1
10
-112.238372
20
276.536997
30
-129.239160
0
VERTEX
8
1
10
-112.037049
20
276.382307
30
-129.328470
0
SEQEND
0
POLYLINE
8
1
62
20
66
1
70
9
0
VERTEX
8
1
10
-112.238372
20
275.365940
30
-126.021708
0
VERTEX
8
1
10
-112.037049
20
276.382307
30
-129.328470
0
VERTEX
8
1
10
-112.037049
20
275.190034
30
-126.052725
0
SEQEND
0
POLYLINE
8
1
62
0
66
1
70
9
0
VERTEX
8
1
10
-112.369066
20
276.740753
30
-129.121521
0
VERTEX
8
1
10
-112.369066
20
278.889097
30
-131.681818
0
VERTEX
8
1
10
-112.238372
20
278.737864
30
-131.862050
0
SEQEND
0
POLYLINE
8
1
62
20
66
1
70
9
0
VERTEX
8
1
10
-112.369066
20
276.740753
30
-129.121521
0
VERTEX
8
1
10
-112.238372
20
278.737864
30
-131.862050
0
VERTEX
8
1
10
-112.238372
20
276.536997
30
-129.239160
0
SEQEND
0
POLYLINE
8
1
62
0
66
1
70
9
0
VERTEX
8
1
10
-112.238372
20
276.536997
30
-129.239160
0
VERTEX
8
1
10
-112.238372
20
278.737864
30
-131.862050
0
VERTEX
8
1
10
-112.037049
20
278.623049
30
-131.998882
0
SEQEND
0
POLYLINE
8
1
62
20
66
1
70
9
0
VERTEX
8
1
10
-112.238372
20
276.536997
30
-129.239160
0
VERTEX
8
1
10
-112.037049
20
278.623049
30
-131.998882
0
VERTEX
8
1
10
-112.037049
20
276.382307
30
-129.328470
0
SEQEND
0
POLYLINE
8
1
62
0
66
1
70
9
0
VERTEX
8
1
10
-80.414339
20
289.863289
30
-137.465434
0
VERTEX
8
1
10
-80.414339
20
294.074034
30
-135.034359
0
VERTEX
8
1
10
-80.414339
20
297.199363
30
-131.309737
0
VERTEX
8
1
10
-80.414339
20
298.862316
30
-126.740812
0
VERTEX
8
1
10
-80.414339
20
298.862316
30
-121.878663
0
VERTEX
8
1
10
-80.414339
20
297.199363
30
-117.309737
0
VERTEX
8
1
10
-80.414339
20
294.074034
30
-113.585115
0
VERTEX
8
1
10
-80.414339
20
289.863289
30
-111.154041
0
VERTEX
8
1
10
-80.414339
20
285.075007
30
-110.309737
0
VERTEX
8
1
10
-80.414339
20
280.286725
30
-111.154041
0
VERTEX
8
1
10
-80.414339
20
276.075980
30
-113.585115
0
VERTEX
8
1
10
-80.414339
20
272.950651
30
-117.309737
0
VERTEX
8
1
10
-80.414339
20
271.287698
30
-121.878663
0
VERTEX
8
1
10
-80.414339
20
271.287698
30
-126.740812
0
VERTEX
8
1
10
-80.414339
20
272.950651
30
-131.309737
0
VERTEX
8
1
10
-80.414339
20
276.075980
30
-135.034359
0
VERTEX
8
1
10
-80.414339
20
280.286725
30
-137.465434
0
VERTEX
8
1
10
-80.414339
20
285.075007
30
-138.309737
0
SEQEND
0
POLYLINE
8
1
62
0
66
1
70
9
0
VERTEX
8
1
10
71.585661
20
285.075007
30
-135.909737
0
VERTEX
8
1
10
71.585661
20
289.042441
30
-135.210172
0
VERTEX
8
1
10
84.385661
20
289.042441
30
-135.210172
0
VERTEX
8
1
10
84.385661
20
285.075007
30
-135.909737
0
VERTEX
8
1
10
81.923843
20
285.075007
30
-135.909737
0
VERTEX
8
1
10
81.692439
20
286.424164
30
-135.671845
0
VERTEX
8
1
10
81.011838
20
287.614271
30
-135.461997
0
VERTEX
8
1
10
79.962987
20
288.499836
30
-135.305848
0
VERTEX
8
1
10
78.672774
20
288.971814
30
-135.222625
0
VERTEX
8
1
10
77.298549
20
288.971814
30
-135.222625
0
VERTEX
8
1
10
76.008336
20
288.499836
30
-135.305848
0
VERTEX
8
1
10
74.959485
20
287.614271
30
-135.461997
0
VERTEX
8
1
10
74.278884
20
286.424164
30
-135.671845
0
VERTEX
8
1
10
74.047480
20
285.075007
30
-135.909737
0
SEQEND
0
POLYLINE
8
1
62
0
66
1
70
9
0
VERTEX
8
1
10
71.585661
20
292.531343
30
-115.423622
0
VERTEX
8
1
10
71.585661
20
289.042441
30
-113.409303
0
VERTEX
8
1
10
75.779624
20
289.042441
30
-113.409303
0
VERTEX
8
1
10
77.196632
20
289.549817
30
-113.702237
0
VERTEX
8
1
10
78.774691
20
289.549817
30
-113.702237
0
VERTEX
8
1
10
80.191699
20
289.042441
30
-113.409303
0
VERTEX
8
1
10
84.385661
20
289.042441
30
-113.409303
0
VERTEX
8
1
10
84.385661
20
292.531343
30
-115.423622
0
SEQEND
0
POLYLINE
8
1
62
0
66
1
70
9
0
VERTEX
8
1
10
71.585661
20
289.042441
30
-113.409303
0
VERTEX
8
1
10
71.585661
20
285.075007
30
-112.709737
0
VERTEX
8
1
10
73.414752
20
285.075007
30
-112.709737
0
VERTEX
8
1
10
73.697465
20
286.635783
30
-112.984944
0
VERTEX
8
1
10
74.494932
20
288.004077
30
-113.226211
0
VERTEX
8
1
10
75.709686
20
289.017113
30
-113.404837
0
VERTEX
8
1
10
75.779624
20
289.042441
30
-113.409303
0
SEQEND
0
POLYLINE
8
1
62
0
66
1
70
9
0
VERTEX
8
1
10
82.556571
20
285.075007
30
-112.709737
0
VERTEX
8
1
10
84.385661
20
285.075007
30
-112.709737
0
VERTEX
8
1
10
84.385661
20
289.042441
30
-113.409303
0
VERTEX
8
1
10
80.191699
20
289.042441
30
-113.409303
0
VERTEX
8
1
10
80.261637
20
289.017113
30
-113.404837
0
VERTEX
8
1
10
81.476391
20
288.004077
30
-113.226211
0
VERTEX
8
1
10
82.273858
20
286.635783
30
-112.984944
0
SEQEND
0
POLYLINE
8
1
62
0
66
1
70
9
0
VERTEX
8
1
10
71.585661
20
285.075007
30
-112.709737
0
VERTEX
8
1
10
71.585661
20
281.107573
30
-113.409303
0
VERTEX
8
1
10
75.779624
20
281.107573
30
-113.409303
0
VERTEX
8
1
10
75.709686
20
281.132901
30
-113.404837
0
VERTEX
8
1
10
74.494932
20
282.145937
30
-113.226211
0
VERTEX
8
1
10
73.697465
20
283.514231
30
-112.984944
0
VERTEX
8
1
10
73.414752
20
285.075007
30
-112.709737
0
SEQEND
0
POLYLINE
8
1
62
0
66
1
70
9
0
VERTEX
8
1
10
80.191699
20
281.107573
30
-113.409303
0
VERTEX
8
1
10
84.385661
20
281.107573
30
-113.409303
0
VERTEX
8
1
10
84.385661
20
285.075007
30
-112.709737
0
VERTEX
8
1
10
82.556571
20
285.075007
30
-112.709737
0
VERTEX
8
1
10
82.273858
20
283.514231
30
-112.984944
0
VERTEX
8
1
10
81.476391
20
282.145937
30
-113.226211
0
VERTEX
8
1
10
80.261637
20
281.132901
30
-113.404837
0
SEQEND
0
POLYLINE
8
1
62
0
66
1
70
9
0
VERTEX
8
1
10
71.585661
20
281.107573
30
-113.409303
0
VERTEX
8
1
10
71.585661
20
277.618671
30
-115.423622
0
VERTEX
8
1
10
84.385661
20
277.618671
30
-115.423622
0
VERTEX
8
1
10
84.385661
20
281.107573
30
-113.409303
0
VERTEX
8
1
10
80.191699
20
281.107573
30
-113.409303
0
VERTEX
8
1
10
78.774691
20
280.600197
30
-113.702237
0
VERTEX
8
1
10
77.196632
20
280.600197
30
-113.702237
0
VERTEX
8
1
10
75.779624
20
281.107573
30
-113.409303
0
SEQEND
0
POLYLINE
8
1
62
0
66
1
70
9
0
VERTEX
8
1
10
71.585661
20
281.107573
30
-135.210172
0
VERTEX
8
1
10
71.585661
20
285.075007
30
-135.909737
0
VERTEX
8
1
10
74.047480
20
285.075007
30
-135.909737
0
VERTEX
8
1
10
74.278884
20
283.725850
30
-135.671845
0
VERTEX
8
1
10
74.959485
20
282.535743
30
-135.461997
0
VERTEX
8
1
10
76.008336
20
281.650178
30
-135.305848
0
VERTEX
8
1
10
77.298549
20
281.178200
30
-135.222625
0
VERTEX
8
1
10
78.672774
20
281.178200
30
-135.222625
0
VERTEX
8
1
10
79.962987
20
281.650178
30
-135.305848
0
VERTEX
8
1
10
81.011838
20
282.535743
30
-135.461997
0
VERTEX
8
1
10
81.692439
20
283.725850
30
-135.671845
0
VERTEX
8
1
10
81.923843
20
285.075007
30
-135.909737
0
VERTEX
8
1
10
84.385661
20
285.075007
30
-135.909737
0
VERTEX
8
1
10
84.385661
20
281.107573
30
-135.210172
0
SEQEND
0
POLYLINE
8
1
62
0
66
1
70
9
0
VERTEX
8
1
10
73.414752
20
285.075007
30
-112.709737
0
VERTEX
8
1
10
74.047480
20
285.075007
30
-135.909737
0
VERTEX
8
1
10
74.278884
20
286.424164
30
-135.671845
0
VERTEX
8
1
10
73.697465
20
286.635783
30
-112.984944
0
SEQEND
0
POLYLINE
8
1
62
0
66
1
70
9
0
VERTEX
8
1
10
73.697465
20
286.635783
30
-112.984944
0
VERTEX
8
1
10
74.278884
20
286.424164
30
-135.671845
0
VERTEX
8
1
10
74.959485
20
287.614271
30
-135.461997
0
VERTEX
8
1
10
74.494932
20
288.004077
30
-113.226211
0
SEQEND
0
POLYLINE
8
1
62
0
66
1
70
9
0
VERTEX
8
1
10
74.494932
20
288.004077
30
-113.226211
0
VERTEX
8
1
10
74.959485
20
287.614271
30
-135.461997
0
VERTEX
8
1
10
76.008336
20
288.499836
30
-135.305848
0
VERTEX
8
1
10
75.709686
20
289.017113
30
-113.404837
0
SEQEND
0
POLYLINE
8
1
62
0
66
1
70
9
0
VERTEX
8
1
10
75.779624
20
289.042441
30
-113.409303
0
VERTEX
8
1
10
75.709686
20
289.017113
30
-113.404837
0
VERTEX
8
1
10
76.008336
20
288.499836
30
-135.305848
0
VERTEX
8
1
10
77.298549
20
288.971814
30
-135.222625
0
VERTEX
8
1
10
77.196632
20
289.549817
30
-113.702237
0
SEQEND
0
POLYLINE
8
1
62
0
66
1
70
9
0
VERTEX
8
1
10
77.196632
20
289.549817
30
-113.702237
0
VERTEX
8
1
10
77.298549
20
288.971814
30
-135.222625
0
VERTEX
8
1
10
78.672774
20
288.971814
30
-135.222625
0
VERTEX
8
1
10
78.774691
20
289.549817
30
-113.702237
0
SEQEND
0
POLYLINE
8
1
62
0
66
1
70
9
0
VERTEX
8
1
10
80.191699
20
289.042441
30
-113.409303
0
VERTEX
8
1
10
78.774691
20
289.549817
30
-113.702237
0
VERTEX
8
1
10
78.672774
20
288.971814
30
-135.222625
0
VERTEX
8
1
10
79.962987
20
288.499836
30
-135.305848
0
VERTEX
8
1
10
80.261637
20
289.017113
30
-113.404837
0
SEQEND
0
POLYLINE
8
1
62
0
66
1
70
9
0
VERTEX
8
1
10
80.261637
20
289.017113
30
-113.404837
0
VERTEX
8
1
10
79.962987
20
288.499836
30
-135.305848
0
VERTEX
8
1
10
81.011838
20
287.614271
30
-135.461997
0
VERTEX
8
1
10
81.476391
20
288.004077
30
-113.226211
0
SEQEND
0
POLYLINE
8
1
62
0
66
1
70
9
0
VERTEX
8
1
10
81.476391
20
288.004077
30
-113.226211
0
VERTEX
8
1
10
81.011838
20
287.614271
30
-135.461997
0
VERTEX
8
1
10
81.692439
20
286.424164
30
-135.671845
0
VERTEX
8
1
10
82.273858
20
286.635783
30
-112.984944
0
SEQEND
0
POLYLINE
8
1
62
0
66
1
70
9
0
VERTEX
8
1
10
82.273858
20
286.635783
30
-112.984944
0
VERTEX
8
1
10
81.692439
20
286.424164
30
-135.671845
0
VERTEX
8
1
10
81.923843
20
285.075007
30
-135.909737
0
VERTEX
8
1
10
82.556571
20
285.075007
30
-112.709737
0
SEQEND
0
POLYLINE
8
1
62
0
66
1
70
9
0
VERTEX
8
1
10
82.556571
20
285.075007
30
-112.709737
0
VERTEX
8
1
10
81.923843
20
285.075007
30
-135.909737
0
VERTEX
8
1
10
81.692439
20
283.725850
30
-135.671845
0
VERTEX
8
1
10
82.273858
20
283.514231
30
-112.984944
0
SEQEND
0
POLYLINE
8
1
62
0
66
1
70
9
0
VERTEX
8
1
10
82.273858
20
283.514231
30
-112.984944
0
VERTEX
8
1
10
81.692439
20
283.725850
30
-135.671845
0
VERTEX
8
1
10
81.011838
20
282.535743
30
-135.461997
0
VERTEX
8
1
10
81.476391
20
282.145937
30
-113.226211
0
SEQEND
0
POLYLINE
8
1
62
0
66
1
70
9
0
VERTEX
8
1
10
81.476391
20
282.145937
30
-113.226211
0
VERTEX
8
1
10
81.011838
20
282.535743
30
-135.461997
0
VERTEX
8
1
10
79.962987
20
281.650178
30
-135.305848
0
VERTEX
8
1
10
80.261637
20
281.132901
30
-113.404837
0
SEQEND
0
POLYLINE
8
1
62
0
66
1
70
9
0
VERTEX
8
1
10
80.191699
20
281.107573
30
-113.409303
0
VERTEX
8
1
10
80.261637
20
281.132901
30
-113.404837
0
VERTEX
8
1
10
79.962987
20
281.650178
30
-135.305848
0
VERTEX
8
1
10
78.672774
20
281.178200
30
-135.222625
0
VERTEX
8
1
10
78.774691
20
280.600197
30
-113.702237
0
SEQEND
0
POLYLINE
8
1
62
0
66
1
70
9
0
VERTEX
8
1
10
78.774691
20
280.600197
30
-113.702237
0
VERTEX
8
1
10
78.672774
20
281.178200
30
-135.222625
0
VERTEX
8
1
10
77.298549
20
281.178200
30
-135.222625
0
VERTEX
8
1
10
77.196632
20
280.600197
30
-113.702237
0
SEQEND
0
POLYLINE
8
1
62
0
66
1
70
9
0
VERTEX
8
1
10
75.779624
20
281.107573
30
-113.409303
0
VERTEX
8
1
10
77.196632
20
280.600197
30
-113.702237
0
VERTEX
8
1
10
77.298549
20
281.178200
30
-135.222625
0
VERTEX
8
1
10
76.008336
20
281.650178
30
-135.305848
0
VERTEX
8
1
10
75.709686
20
281.132901
30
-113.404837
0
SEQEND
0
POLYLINE
8
1
62
0
66
1
70
9
0
VERTEX
8
1
10
75.709686
20
281.132901
30
-113.404837
0
VERTEX
8
1
10
76.008336
20
281.650178
30
-135.305848
0
VERTEX
8
1
10
74.959485
20
282.535743
30
-135.461997
0
VERTEX
8
1
10
74.494932
20
282.145937
30
-113.226211
0
SEQEND
0
POLYLINE
8
1
62
0
66
1
70
9
0
VERTEX
8
1
10
74.494932
20
282.145937
30
-113.226211
0
VERTEX
8
1
10
74.959485
20
282.535743
30
-135.461997
0
VERTEX
8
1
10
74.278884
20
283.725850
30
-135.671845
0
VERTEX
8
1
10
73.697465
20
283.514231
30
-112.984944
0
SEQEND
0
POLYLINE
8
1
62
0
66
1
70
9
0
VERTEX
8
1
10
73.697465
20
283.514231
30
-112.984944
0
VERTEX
8
1
10
74.278884
20
283.725850
30
-135.671845
0
VERTEX
8
1
10
74.047480
20
285.075007
30
-135.909737
0
VERTEX
8
1
10
73.414752
20
285.075007
30
-112.709737
0
SEQEND
0
POLYLINE
8
1
62
0
66
1
70
9
0
VERTEX
8
1
10
71.585661
20
289.042441
30
-135.210172
0
VERTEX
8
1
10
71.585661
20
292.531343
30
-133.195853
0
VERTEX
8
1
10
84.385661
20
292.531343
30
-133.195853
0
VERTEX
8
1
10
84.385661
20
289.042441
30
-135.210172
0
SEQEND
0
POLYLINE
8
1
62
0
66
1
70
9
0
VERTEX
8
1
10
71.585661
20
292.531343
30
-133.195853
0
VERTEX
8
1
10
71.585661
20
295.120902
30
-130.109737
0
VERTEX
8
1
10
84.385661
20
295.120902
30
-130.109737
0
VERTEX
8
1
10
84.385661
20
292.531343
30
-133.195853
0
SEQEND
0
POLYLINE
8
1
62
0
66
1
70
9
0
VERTEX
8
1
10
71.585661
20
295.120902
30
-130.109737
0
VERTEX
8
1
10
71.585661
20
296.498777
30
-126.324056
0
VERTEX
8
1
10
84.385661
20
296.498777
30
-126.324056
0
VERTEX
8
1
10
84.385661
20
295.120902
30
-130.109737
0
SEQEND
0
POLYLINE
8
1
62
0
66
1
70
9
0
VERTEX
8
1
10
71.585661
20
296.498777
30
-126.324056
0
VERTEX
8
1
10
71.585661
20
296.498777
30
-122.295418
0
VERTEX
8
1
10
84.385661
20
296.498777
30
-122.295418
0
VERTEX
8
1
10
84.385661
20
296.498777
30
-126.324056
0
SEQEND
0
POLYLINE
8
1
62
0
66
1
70
9
0
VERTEX
8
1
10
71.585661
20
296.498777
30
-122.295418
0
VERTEX
8
1
10
71.585661
20
295.120902
30
-118.509737
0
VERTEX
8
1
10
84.385661
20
295.120902
30
-118.509737
0
VERTEX
8
1
10
84.385661
20
296.498777
30
-122.295418
0
SEQEND
0
POLYLINE
8
1
62
0
66
1
70
9
0
VERTEX
8
1
10
71.585661
20
295.120902
30
-118.509737
0
VERTEX
8
1
10
71.585661
20
292.531343
30
-115.423622
0
VERTEX
8
1
10
84.385661
20
292.531343
30
-115.423622
0
VERTEX
8
1
10
84.385661
20
295.120902
30
-118.509737
0
SEQEND
0
POLYLINE
8
1
62
0
66
1
70
9
0
VERTEX
8
1
10
71.585661
20
277.618671
30
-115.423622
0
VERTEX
8
1
10
71.585661
20
275.029112
30
-118.509737
0
VERTEX
8
1
10
84.385661
20
275.029112
30
-118.509737
0
VERTEX
8
1
10
84.385661
20
277.618671
30
-115.423622
0
SEQEND
0
POLYLINE
8
1
62
0
66
1
70
9
0
VERTEX
8
1
10
71.585661
20
275.029112
30
-118.509737
0
VERTEX
8
1
10
71.585661
20
273.651237
30
-122.295418
0
VERTEX
8
1
10
84.385661
20
273.651237
30
-122.295418
0
VERTEX
8
1
10
84.385661
20
275.029112
30
-118.509737
0
SEQEND
0
POLYLINE
8
1
62
0
66
1
70
9
0
VERTEX
8
1
10
71.585661
20
273.651237
30
-122.295418
0
VERTEX
8
1
10
71.585661
20
273.651237
30
-126.324056
0
VERTEX
8
1
10
84.385661
20
273.651237
30
-126.324056
0
VERTEX
8
1
10
84.385661
20
273.651237
30
-122.295418
0
SEQEND
0
POLYLINE
8
1
62
0
66
1
70
9
0
VERTEX
8
1
10
71.585661
20
273.651237
30
-126.324056
0
VERTEX
8
1
10
71.585661
20
275.029112
30
-130.109737
0
VERTEX
8
1
10
84.385661
20
275.029112
30
-130.109737
0
VERTEX
8
1
10
84.385661
20
273.651237
30
-126.324056
0
SEQEND
0
POLYLINE
8
1
62
0
66
1
70
9
0
VERTEX
8
1
10
71.585661
20
275.029112
30
-130.109737
0
VERTEX
8
1
10
71.585661
20
277.618671
30
-133.195853
0
VERTEX
8
1
10
84.385661
20
277.618671
30
-133.195853
0
VERTEX
8
1
10
84.385661
20
275.029112
30
-130.109737
0
SEQEND
0
POLYLINE
8
1
62
0
66
1
70
9
0
VERTEX
8
1
10
71.585661
20
277.618671
30
-133.195853
0
VERTEX
8
1
10
71.585661
20
281.107573
30
-135.210172
0
VERTEX
8
1
10
84.385661
20
281.107573
30
-135.210172
0
VERTEX
8
1
10
84.385661
20
277.618671
30
-133.195853
0
SEQEND
0
POLYLINE
8
1
62
0
66
1
70
9
0
VERTEX
8
1
10
59.585661
20
285.075007
30
-138.309737
0
VERTEX
8
1
10
59.585661
20
289.863289
30
-137.465434
0
VERTEX
8
1
10
71.585661
20
289.042441
30
-135.210172
0
VERTEX
8
1
10
71.585661
20
285.075007
30
-135.909737
0
SEQEND
0
POLYLINE
8
1
62
0
66
1
70
9
0
VERTEX
8
1
10
59.585661
20
289.863289
30
-137.465434
0
VERTEX
8
1
10
59.585661
20
294.074034
30
-135.034359
0
VERTEX
8
1
10
71.585661
20
292.531343
30
-133.195853
0
VERTEX
8
1
10
71.585661
20
289.042441
30
-135.210172
0
SEQEND
0
POLYLINE
8
1
62
0
66
1
70
9
0
VERTEX
8
1
10
59.585661
20
294.074034
30
-135.034359
0
VERTEX
8
1
10
59.585661
20
297.199363
30
-131.309737
0
VERTEX
8
1
10
71.585661
20
295.120902
30
-130.109737
0
VERTEX
8
1
10
71.585661
20
292.531343
30
-133.195853
0
SEQEND
0
POLYLINE
8
1
62
0
66
1
70
9
0
VERTEX
8
1
10
59.585661
20
297.199363
30
-131.309737
0
VERTEX
8
1
10
59.585661
20
298.862316
30
-126.740812
0
VERTEX
8
1
10
71.585661
20
296.498777
30
-126.324056
0
VERTEX
8
1
10
71.585661
20
295.120902
30
-130.109737
0
SEQEND
0
POLYLINE
8
1
62
0
66
1
70
9
0
VERTEX
8
1
10
59.585661
20
298.862316
30
-126.740812
0
VERTEX
8
1
10
59.585661
20
298.862316
30
-121.878663
0
VERTEX
8
1
10
71.585661
20
296.498777
30
-122.295418
0
VERTEX
8
1
10
71.585661
20
296.498777
30
-126.324056
0
SEQEND
0
POLYLINE
8
1
62
0
66
1
70
9
0
VERTEX
8
1
10
59.585661
20
298.862316
30
-121.878663
0
VERTEX
8
1
10
59.585661
20
297.199363
30
-117.309737
0
VERTEX
8
1
10
71.585661
20
295.120902
30
-118.509737
0
VERTEX
8
1
10
71.585661
20
296.498777
30
-122.295418
0
SEQEND
0
POLYLINE
8
1
62
0
66
1
70
9
0
VERTEX
8
1
10
59.585661
20
297.199363
30
-117.309737
0
VERTEX
8
1
10
59.585661
20
294.074034
30
-113.585115
0
VERTEX
8
1
10
71.585661
20
292.531343
30
-115.423622
0
VERTEX
8
1
10
71.585661
20
295.120902
30
-118.509737
0
SEQEND
0
POLYLINE
8
1
62
0
66
1
70
9
0
VERTEX
8
1
10
59.585661
20
294.074034
30
-113.585115
0
VERTEX
8
1
10
59.585661
20
289.863289
30
-111.154041
0
VERTEX
8
1
10
71.585661
20
289.042441
30
-113.409303
0
VERTEX
8
1
10
71.585661
20
292.531343
30
-115.423622
0
SEQEND
0
POLYLINE
8
1
62
0
66
1
70
9
0
VERTEX
8
1
10
59.585661
20
289.863289
30
-111.154041
0
VERTEX
8
1
10
59.585661
20
285.075007
30
-110.309737
0
VERTEX
8
1
10
71.585661
20
285.075007
30
-112.709737
0
VERTEX
8
1
10
71.585661
20
289.042441
30
-113.409303
0
SEQEND
0
POLYLINE
8
1
62
0
66
1
70
9
0
VERTEX
8
1
10
59.585661
20
285.075007
30
-110.309737
0
VERTEX
8
1
10
59.585661
20
280.286725
30
-111.154041
0
VERTEX
8
1
10
71.585661
20
281.107573
30
-113.409303
0
VERTEX
8
1
10
71.585661
20
285.075007
30
-112.709737
0
SEQEND
0
POLYLINE
8
1
62
0
66
1
70
9
0
VERTEX
8
1
10
59.585661
20
280.286725
30
-111.154041
0
VERTEX
8
1
10
59.585661
20
276.075980
30
-113.585115
0
VERTEX
8
1
10
71.585661
20
277.618671
30
-115.423622
0
VERTEX
8
1
10
71.585661
20
281.107573
30
-113.409303
0
SEQEND
0
POLYLINE
8
1
62
0
66
1
70
9
0
VERTEX
8
1
10
59.585661
20
276.075980
30
-113.585115
0
VERTEX
8
1
10
59.585661
20
272.950651
30
-117.309737
0
VERTEX
8
1
10
71.585661
20
275.029112
30
-118.509737
0
VERTEX
8
1
10
71.585661
20
277.618671
30
-115.423622
0
SEQEND
0
POLYLINE
8
1
62
0
66
1
70
9
0
VERTEX
8
1
10
59.585661
20
272.950651
30
-117.309737
0
VERTEX
8
1
10
59.585661
20
271.287698
30
-121.878663
0
VERTEX
8
1
10
71.585661
20
273.651237
30
-122.295418
0
VERTEX
8
1
10
71.585661
20
275.029112
30
-118.509737
0
SEQEND
0
POLYLINE
8
1
62
0
66
1
70
9
0
VERTEX
8
1
10
59.585661
20
271.287698
30
-121.878663
0
VERTEX
8
1
10
59.585661
20
271.287698
30
-126.740812
0
VERTEX
8
1
10
71.585661
20
273.651237
30
-126.324056
0
VERTEX
8
1
10
71.585661
20
273.651237
30
-122.295418
0
SEQEND
0
POLYLINE
8
1
62
0
66
1
70
9
0
VERTEX
8
1
10
59.585661
20
271.287698
30
-126.740812
0
VERTEX
8
1
10
59.585661
20
272.950651
30
-131.309737
0
VERTEX
8
1
10
71.585661
20
275.029112
30
-130.109737
0
VERTEX
8
1
10
71.585661
20
273.651237
30
-126.324056
0
SEQEND
0
POLYLINE
8
1
62
0
66
1
70
9
0
VERTEX
8
1
10
59.585661
20
272.950651
30
-131.309737
0
VERTEX
8
1
10
59.585661
20
276.075980
30
-135.034359
0
VERTEX
8
1
10
71.585661
20
277.618671
30
-133.195853
0
VERTEX
8
1
10
71.585661
20
275.029112
30
-130.109737
0
SEQEND
0
POLYLINE
8
1
62
0
66
1
70
9
0
VERTEX
8
1
10
59.585661
20
276.075980
30
-135.034359
0
VERTEX
8
1
10
59.585661
20
280.286725
30
-137.465434
0
VERTEX
8
1
10
71.585661
20
281.107573
30
-135.210172
0
VERTEX
8
1
10
71.585661
20
277.618671
30
-133.195853
0
SEQEND
0
POLYLINE
8
1
62
0
66
1
70
9
0
VERTEX
8
1
10
59.585661
20
280.286725
30
-137.465434
0
VERTEX
8
1
10
59.585661
20
285.075007
30
-138.309737
0
VERTEX
8
1
10
71.585661
20
285.075007
30
-135.909737
0
VERTEX
8
1
10
71.585661
20
281.107573
30
-135.210172
0
SEQEND
0
POLYLINE
8
1
62
0
66
1
70
9
0
VERTEX
8
1
10
84.385661
20
285.075007
30
-135.909737
0
VERTEX
8
1
10
84.385661
20
289.042441
30
-135.210172
0
VERTEX
8
1
10
90.959206
20
288.542822
30
-133.837480
0
VERTEX
8
1
10
90.959206
20
285.075007
30
-134.448950
0
SEQEND
0
POLYLINE
8
1
62
0
66
1
70
9
0
VERTEX
8
1
10
84.385661
20
289.042441
30
-135.210172
0
VERTEX
8
1
10
84.385661
20
292.531343
30
-133.195853
0
VERTEX
8
1
10
90.959206
20
291.592367
30
-132.076824
0
VERTEX
8
1
10
90.959206
20
288.542822
30
-133.837480
0
SEQEND
0
POLYLINE
8
1
62
0
66
1
70
9
0
VERTEX
8
1
10
84.385661
20
292.531343
30
-133.195853
0
VERTEX
8
1
10
84.385661
20
295.120902
30
-130.109737
0
VERTEX
8
1
10
90.959206
20
293.855822
30
-129.379343
0
VERTEX
8
1
10
90.959206
20
291.592367
30
-132.076824
0
SEQEND
0
POLYLINE
8
1
62
0
66
1
70
9
0
VERTEX
8
1
10
84.385661
20
295.120902
30
-130.109737
0
VERTEX
8
1
10
84.385661
20
296.498777
30
-126.324056
0
VERTEX
8
1
10
90.959206
20
295.060182
30
-126.070393
0
VERTEX
8
1
10
90.959206
20
293.855822
30
-129.379343
0
SEQEND
0
POLYLINE
8
1
62
0
66
1
70
9
0
VERTEX
8
1
10
84.385661
20
296.498777
30
-126.324056
0
VERTEX
8
1
10
84.385661
20
296.498777
30
-122.295418
0
VERTEX
8
1
10
90.959206
20
295.060182
30
-122.549081
0
VERTEX
8
1
10
90.959206
20
295.060182
30
-126.070393
0
SEQEND
0
POLYLINE
8
1
62
0
66
1
70
9
0
VERTEX
8
1
10
84.385661
20
296.498777
30
-122.295418
0
VERTEX
8
1
10
84.385661
20
295.120902
30
-118.509737
0
VERTEX
8
1
10
90.959206
20
293.855822
30
-119.240131
0
VERTEX
8
1
10
90.959206
20
295.060182
30
-122.549081
0
SEQEND
0
POLYLINE
8
1
62
0
66
1
70
9
0
VERTEX
8
1
10
84.385661
20
295.120902
30
-118.509737
0
VERTEX
8
1
10
84.385661
20
292.531343
30
-115.423622
0
VERTEX
8
1
10
90.959206
20
291.592367
30
-116.542650
0
VERTEX
8
1
10
90.959206
20
293.855822
30
-119.240131
0
SEQEND
0
POLYLINE
8
1
62
0
66
1
70
9
0
VERTEX
8
1
10
84.385661
20
292.531343
30
-115.423622
0
VERTEX
8
1
10
84.385661
20
289.042441
30
-113.409303
0
VERTEX
8
1
10
90.959206
20
288.542822
30
-114.781994
0
VERTEX
8
1
10
90.959206
20
291.592367
30
-116.542650
0
SEQEND
0
POLYLINE
8
1
62
0
66
1
70
9
0
VERTEX
8
1
10
84.385661
20
289.042441
30
-113.409303
0
VERTEX
8
1
10
84.385661
20
285.075007
30
-112.709737
0
VERTEX
8
1
10
90.959206
20
285.075007
30
-114.170525
0
VERTEX
8
1
10
90.959206
20
288.542822
30
-114.781994
0
SEQEND
0
POLYLINE
8
1
62
0
66
1
70
9
0
VERTEX
8
1
10
84.385661
20
285.075007
30
-112.709737
0
VERTEX
8
1
10
84.385661
20
281.107573
30
-113.409303
0
VERTEX
8
1
10
90.959206
20
281.607192
30
-114.781994
0
VERTEX
8
1
10
90.959206
20
285.075007
30
-114.170525
0
SEQEND
0
POLYLINE
8
1
62
0
66
1
70
9
0
VERTEX
8
1
10
84.385661
20
281.107573
30
-113.409303
0
VERTEX
8
1
10
84.385661
20
277.618671
30
-115.423622
0
VERTEX
8
1
10
90.959206
20
278.557647
30
-116.542650
0
VERTEX
8
1
10
90.959206
20
281.607192
30
-114.781994
0
SEQEND
0
POLYLINE
8
1
62
0
66
1
70
9
0
VERTEX
8
1
10
84.385661
20
277.618671
30
-115.423622
0
VERTEX
8
1
10
84.385661
20
275.029112
30
-118.509737
0
VERTEX
8
1
10
90.959206
20
276.294192
30
-119.240131
0
VERTEX
8
1
10
90.959206
20
278.557647
30
-116.542650
0
SEQEND
0
POLYLINE
8
1
62
0
66
1
70
9
0
VERTEX
8
1
10
84.385661
20
275.029112
30
-118.509737
0
VERTEX
8
1
10
84.385661
20
273.651237
30
-122.295418
0
VERTEX
8
1
10
90.959206
20
275.089832
30
-122.549081
0
VERTEX
8
1
10
90.959206
20
276.294192
30
-119.240131
0
SEQEND
0
POLYLINE
8
1
62
0
66
1
70
9
0
VERTEX
8
1
10
84.385661
20
273.651237
30
-122.295418
0
VERTEX
8
1
10
84.385661
20
273.651237
30
-126.324056
0
VERTEX
8
1
10
90.959206
20
275.089832
30
-126.070393
0
VERTEX
8
1
10
90.959206
20
275.089832
30
-122.549081
0
SEQEND
0
POLYLINE
8
1
62
0
66
1
70
9
0
VERTEX
8
1
10
84.385661
20
273.651237
30
-126.324056
0
VERTEX
8
1
10
84.385661
20
275.029112
30
-130.109737
0
VERTEX
8
1
10
90.959206
20
276.294192
30
-129.379343
0
VERTEX
8
1
10
90.959206
20
275.089832
30
-126.070393
0
SEQEND
0
POLYLINE
8
1
62
0
66
1
70
9
0
VERTEX
8
1
10
84.385661
20
275.029112
30
-130.109737
0
VERTEX
8
1
10
84.385661
20
277.618671
30
-133.195853
0
VERTEX
8
1
10
90.959206
20
278.557647
30
-132.076824
0
VERTEX
8
1
10
90.959206
20
276.294192
30
-129.379343
0
SEQEND
0
POLYLINE
8
1
62
0
66
1
70
9
0
VERTEX
8
1
10
84.385661
20
277.618671
30
-133.195853
0
VERTEX
8
1
10
84.385661
20
281.107573
30
-135.210172
0
VERTEX
8
1
10
90.959206
20
281.607192
30
-133.837480
0
VERTEX
8
1
10
90.959206
20
278.557647
30
-132.076824
0
SEQEND
0
POLYLINE
8
1
62
0
66
1
70
9
0
VERTEX
8
1
10
84.385661
20
281.107573
30
-135.210172
0
VERTEX
8
1
10
84.385661
20
285.075007
30
-135.909737
0
VERTEX
8
1
10
90.959206
20
285.075007
30
-134.448950
0
VERTEX
8
1
10
90.959206
20
281.607192
30
-133.837480
0
SEQEND
0
POLYLINE
8
1
62
0
66
1
70
9
0
VERTEX
8
1
10
91.585661
20
288.275721
30
-133.103628
0
VERTEX
8
1
10
91.585661
20
291.090382
30
-131.478582
0
VERTEX
8
1
10
91.585661
20
293.179500
30
-128.988869
0
VERTEX
8
1
10
91.585661
20
294.291097
30
-125.934782
0
VERTEX
8
1
10
91.585661
20
294.291097
30
-122.684692
0
VERTEX
8
1
10
91.585661
20
293.179500
30
-119.630606
0
VERTEX
8
1
10
91.585661
20
291.090382
30
-117.140892
0
VERTEX
8
1
10
91.585661
20
288.275721
30
-115.515847
0
VERTEX
8
1
10
91.585661
20
285.075007
30
-114.951474
0
VERTEX
8
1
10
91.585661
20
281.874293
30
-115.515847
0
VERTEX
8
1
10
91.585661
20
279.059632
30
-117.140892
0
VERTEX
8
1
10
91.585661
20
276.970514
30
-119.630606
0
VERTEX
8
1
10
91.585661
20
275.858917
30
-122.684692
0
VERTEX
8
1
10
91.585661
20
275.858917
30
-125.934782
0
VERTEX
8
1
10
91.585661
20
276.970514
30
-128.988869
0
VERTEX
8
1
10
91.585661
20
279.059632
30
-131.478582
0
VERTEX
8
1
10
91.585661
20
281.874293
30
-133.103628
0
VERTEX
8
1
10
91.585661
20
285.075007
30
-133.668000
0
SEQEND
0
POLYLINE
8
1
62
0
66
1
70
9
0
VERTEX
8
1
10
91.585661
20
291.090382
30
-131.478582
0
VERTEX
8
1
10
91.585661
20
288.275721
30
-133.103628
0
VERTEX
8
1
10
91.540389
20
288.366461
30
-133.352933
0
VERTEX
8
1
10
91.540389
20
291.260917
30
-131.681818
0
SEQEND
0
POLYLINE
8
1
62
0
66
1
70
9
0
VERTEX
8
1
10
91.208372
20
291.526965
30
-131.998882
0
VERTEX
8
1
10
91.208372
20
288.508022
30
-133.741869
0
VERTEX
8
1
10
90.959206
20
288.542822
30
-133.837480
0
VERTEX
8
1
10
90.959206
20
291.592367
30
-132.076824
0
SEQEND
0
POLYLINE
8
1
62
0
66
1
70
9
0
VERTEX
8
1
10
91.585661
20
288.275721
30
-133.103628
0
VERTEX
8
1
10
91.585661
20
285.075007
30
-133.668000
0
VERTEX
8
1
10
91.540389
20
285.075007
30
-133.933305
0
VERTEX
8
1
10
91.540389
20
288.366461
30
-133.352933
0
SEQEND
0
POLYLINE
8
1
62
0
66
1
70
9
0
VERTEX
8
1
10
91.208372
20
288.508022
30
-133.741869
0
VERTEX
8
1
10
91.208372
20
285.075007
30
-134.347202
0
VERTEX
8
1
10
90.959206
20
285.075007
30
-134.448950
0
VERTEX
8
1
10
90.959206
20
288.542822
30
-133.837480
0
SEQEND
0
POLYLINE
8
1
62
0
66
1
70
9
0
VERTEX
8
1
10
91.585661
20
285.075007
30
-133.668000
0
VERTEX
8
1
10
91.585661
20
281.874293
30
-133.103628
0
VERTEX
8
1
10
91.540389
20
281.783553
30
-133.352933
0
VERTEX
8
1
10
91.540389
20
285.075007
30
-133.933305
0
SEQEND
0
POLYLINE
8
1
62
0
66
1
70
9
0
VERTEX
8
1
10
91.208372
20
285.075007
30
-134.347202
0
VERTEX
8
1
10
91.208372
20
281.641992
30
-133.741869
0
VERTEX
8
1
10
90.959206
20
281.607192
30
-133.837480
0
VERTEX
8
1
10
90.959206
20
285.075007
30
-134.448950
0
SEQEND
0
POLYLINE
8
1
62
0
66
1
70
9
0
VERTEX
8
1
10
91.585661
20
281.874293
30
-133.103628
0
VERTEX
8
1
10
91.585661
20
279.059632
30
-131.478582
0
VERTEX
8
1
10
91.540389
20
278.889097
30
-131.681818
0
VERTEX
8
1
10
91.540389
20
281.783553
30
-133.352933
0
SEQEND
0
POLYLINE
8
1
62
0
66
1
70
9
0
VERTEX
8
1
10
91.208372
20
281.641992
30
-133.741869
0
VERTEX
8
1
10
91.208372
20
278.623049
30
-131.998882
0
VERTEX
8
1
10
90.959206
20
278.557647
30
-132.076824
0
VERTEX
8
1
10
90.959206
20
281.607192
30
-133.837480
0
SEQEND
0
POLYLINE
8
1
62
0
66
1
70
9
0
VERTEX
8
1
10
91.585661
20
279.059632
30
-131.478582
0
VERTEX
8
1
10
91.585661
20
276.970514
30
-128.988869
0
VERTEX
8
1
10
91.540389
20
276.740753
30
-129.121521
0
VERTEX
8
1
10
91.540389
20
278.889097
30
-131.681818
0
SEQEND
0
POLYLINE
8
1
62
0
66
1
70
9
0
VERTEX
8
1
10
91.208372
20
278.623049
30
-131.998882
0
VERTEX
8
1
10
91.208372
20
276.382307
30
-129.328470
0
VERTEX
8
1
10
90.959206
20
276.294192
30
-129.379343
0
VERTEX
8
1
10
90.959206
20
278.557647
30
-132.076824
0
SEQEND
0
POLYLINE
8
1
62
0
66
1
70
9
0
VERTEX
8
1
10
91.585661
20
276.970514
30
-128.988869
0
VERTEX
8
1
10
91.585661
20
275.858917
30
-125.934782
0
VERTEX
8
1
10
91.540389
20
275.597643
30
-125.980852
0
VERTEX
8
1
10
91.540389
20
276.740753
30
-129.121521
0
SEQEND
0
POLYLINE
8
1
62
0
66
1
70
9
0
VERTEX
8
1
10
91.208372
20
276.382307
30
-129.328470
0
VERTEX
8
1
10
91.208372
20
275.190034
30
-126.052725
0
VERTEX
8
1
10
90.959206
20
275.089832
30
-126.070393
0
VERTEX
8
1
10
90.959206
20
276.294192
30
-129.379343
0
SEQEND
0
POLYLINE
8
1
62
0
66
1
70
9
0
VERTEX
8
1
10
91.585661
20
275.858917
30
-125.934782
0
VERTEX
8
1
10
91.585661
20
275.858917
30
-122.684692
0
VERTEX
8
1
10
91.540389
20
275.597643
30
-122.638622
0
VERTEX
8
1
10
91.540389
20
275.597643
30
-125.980852
0
SEQEND
0
POLYLINE
8
1
62
0
66
1
70
9
0
VERTEX
8
1
10
91.208372
20
275.190034
30
-126.052725
0
VERTEX
8
1
10
91.208372
20
275.190034
30
-122.566750
0
VERTEX
8
1
10
90.959206
20
275.089832
30
-122.549081
0
VERTEX
8
1
10
90.959206
20
275.089832
30
-126.070393
0
SEQEND
0
POLYLINE
8
1
62
0
66
1
70
9
0
VERTEX
8
1
10
91.585661
20
275.858917
30
-122.684692
0
VERTEX
8
1
10
91.585661
20
276.970514
30
-119.630606
0
VERTEX
8
1
10
91.540389
20
276.740753
30
-119.497953
0
VERTEX
8
1
10
91.540389
20
275.597643
30
-122.638622
0
SEQEND
0
POLYLINE
8
1
62
0
66
1
70
9
0
VERTEX
8
1
10
91.208372
20
275.190034
30
-122.566750
0
VERTEX
8
1
10
91.208372
20
276.382307
30
-119.291005
0
VERTEX
8
1
10
90.959206
20
276.294192
30
-119.240131
0
VERTEX
8
1
10
90.959206
20
275.089832
30
-122.549081
0
SEQEND
0
POLYLINE
8
1
62
0
66
1
70
9
0
VERTEX
8
1
10
91.585661
20
276.970514
30
-119.630606
0
VERTEX
8
1
10
91.585661
20
279.059632
30
-117.140892
0
VERTEX
8
1
10
91.540389
20
278.889097
30
-116.937657
0
VERTEX
8
1
10
91.540389
20
276.740753
30
-119.497953
0
SEQEND
0
POLYLINE
8
1
62
0
66
1
70
9
0
VERTEX
8
1
10
91.208372
20
276.382307
30
-119.291005
0
VERTEX
8
1
10
91.208372
20
278.623049
30
-116.620593
0
VERTEX
8
1
10
90.959206
20
278.557647
30
-116.542650
0
VERTEX
8
1
10
90.959206
20
276.294192
30
-119.240131
0
SEQEND
0
POLYLINE
8
1
62
0
66
1
70
9
0
VERTEX
8
1
10
91.585661
20
279.059632
30
-117.140892
0
VERTEX
8
1
10
91.585661
20
281.874293
30
-115.515847
0
VERTEX
8
1
10
91.540389
20
281.783553
30
-115.266542
0
VERTEX
8
1
10
91.540389
20
278.889097
30
-116.937657
0
SEQEND
0
POLYLINE
8
1
62
0
66
1
70
9
0
VERTEX
8
1
10
91.208372
20
278.623049
30
-116.620593
0
VERTEX
8
1
10
91.208372
20
281.641992
30
-114.877605
0
VERTEX
8
1
10
90.959206
20
281.607192
30
-114.781994
0
VERTEX
8
1
10
90.959206
20
278.557647
30
-116.542650
0
SEQEND
0
POLYLINE
8
1
62
0
66
1
70
9
0
VERTEX
8
1
10
91.585661
20
281.874293
30
-115.515847
0
VERTEX
8
1
10
91.585661
20
285.075007
30
-114.951474
0
VERTEX
8
1
10
91.540389
20
285.075007
30
-114.686170
0
VERTEX
8
1
10
91.540389
20
281.783553
30
-115.266542
0
SEQEND
0
POLYLINE
8
1
62
0
66
1
70
9
0
VERTEX
8
1
10
91.208372
20
281.641992
30
-114.877605
0
VERTEX
8
1
10
91.208372
20
285.075007
30
-114.272272
0
VERTEX
8
1
10
90.959206
20
285.075007
30
-114.170525
0
VERTEX
8
1
10
90.959206
20
281.607192
30
-114.781994
0
SEQEND
0
POLYLINE
8
1
62
0
66
1
70
9
0
VERTEX
8
1
10
91.585661
20
285.075007
30
-114.951474
0
VERTEX
8
1
10
91.585661
20
288.275721
30
-115.515847
0
VERTEX
8
1
10
91.540389
20
288.366461
30
-115.266542
0
VERTEX
8
1
10
91.540389
20
285.075007
30
-114.686170
0
SEQEND
0
POLYLINE
8
1
62
0
66
1
70
9
0
VERTEX
8
1
10
91.208372
20
285.075007
30
-114.272272
0
VERTEX
8
1
10
91.208372
20
288.508022
30
-114.877605
0
VERTEX
8
1
10
90.959206
20
288.542822
30
-114.781994
0
VERTEX
8
1
10
90.959206
20
285.075007
30
-114.170525
0
SEQEND
0
POLYLINE
8
1
62
0
66
1
70
9
0
VERTEX
8
1
10
91.585661
20
288.275721
30
-115.515847
0
VERTEX
8
1
10
91.585661
20
291.090382
30
-117.140892
0
VERTEX
8
1
10
91.540389
20
291.260917
30
-116.937657
0
VERTEX
8
1
10
91.540389
20
288.366461
30
-115.266542
0
SEQEND
0
POLYLINE
8
1
62
0
66
1
70
9
0
VERTEX
8
1
10
91.208372
20
288.508022
30
-114.877605
0
VERTEX
8
1
10
91.208372
20
291.526965
30
-116.620593
0
VERTEX
8
1
10
90.959206
20
291.592367
30
-116.542650
0
VERTEX
8
1
10
90.959206
20
288.542822
30
-114.781994
0
SEQEND
0
POLYLINE
8
1
62
0
66
1
70
9
0
VERTEX
8
1
10
91.585661
20
291.090382
30
-117.140892
0
VERTEX
8
1
10
91.585661
20
293.179500
30
-119.630606
0
VERTEX
8
1
10
91.540389
20
293.409261
30
-119.497953
0
VERTEX
8
1
10
91.540389
20
291.260917
30
-116.937657
0
SEQEND
0
POLYLINE
8
1
62
0
66
1
70
9
0
VERTEX
8
1
10
91.208372
20
291.526965
30
-116.620593
0
VERTEX
8
1
10
91.208372
20
293.767707
30
-119.291005
0
VERTEX
8
1
10
90.959206
20
293.855822
30
-119.240131
0
VERTEX
8
1
10
90.959206
20
291.592367
30
-116.542650
0
SEQEND
0
POLYLINE
8
1
62
0
66
1
70
9
0
VERTEX
8
1
10
91.585661
20
293.179500
30
-119.630606
0
VERTEX
8
1
10
91.585661
20
294.291097
30
-122.684692
0
VERTEX
8
1
10
91.540389
20
294.552371
30
-122.638622
0
VERTEX
8
1
10
91.540389
20
293.409261
30
-119.497953
0
SEQEND
0
POLYLINE
8
1
62
0
66
1
70
9
0
VERTEX
8
1
10
91.208372
20
293.767707
30
-119.291005
0
VERTEX
8
1
10
91.208372
20
294.959980
30
-122.566750
0
VERTEX
8
1
10
90.959206
20
295.060182
30
-122.549081
0
VERTEX
8
1
10
90.959206
20
293.855822
30
-119.240131
0
SEQEND
0
POLYLINE
8
1
62
0
66
1
70
9
0
VERTEX
8
1
10
91.585661
20
294.291097
30
-122.684692
0
VERTEX
8
1
10
91.585661
20
294.291097
30
-125.934782
0
VERTEX
8
1
10
91.540389
20
294.552371
30
-125.980852
0
VERTEX
8
1
10
91.540389
20
294.552371
30
-122.638622
0
SEQEND
0
POLYLINE
8
1
62
0
66
1
70
9
0
VERTEX
8
1
10
91.208372
20
294.959980
30
-122.566750
0
VERTEX
8
1
10
91.208372
20
294.959980
30
-126.052725
0
VERTEX
8
1
10
90.959206
20
295.060182
30
-126.070393
0
VERTEX
8
1
10
90.959206
20
295.060182
30
-122.549081
0
SEQEND
0
POLYLINE
8
1
62
0
66
1
70
9
0
VERTEX
8
1
10
91.585661
20
294.291097
30
-125.934782
0
VERTEX
8
1
10
91.585661
20
293.179500
30
-128.988869
0
VERTEX
8
1
10
91.540389
20
293.409261
30
-129.121521
0
VERTEX
8
1
10
91.540389
20
294.552371
30
-125.980852
0
SEQEND
0
POLYLINE
8
1
62
0
66
1
70
9
0
VERTEX
8
1
10
91.208372
20
294.959980
30
-126.052725
0
VERTEX
8
1
10
91.208372
20
293.767707
30
-129.328470
0
VERTEX
8
1
10
90.959206
20
293.855822
30
-129.379343
0
VERTEX
8
1
10
90.959206
20
295.060182
30
-126.070393
0
SEQEND
0
POLYLINE
8
1
62
0
66
1
70
9
0
VERTEX
8
1
10
91.585661
20
293.179500
30
-128.988869
0
VERTEX
8
1
10
91.585661
20
291.090382
30
-131.478582
0
VERTEX
8
1
10
91.540389
20
291.260917
30
-131.681818
0
VERTEX
8
1
10
91.540389
20
293.409261
30
-129.121521
0
SEQEND
0
POLYLINE
8
1
62
0
66
1
70
9
0
VERTEX
8
1
10
91.208372
20
293.767707
30
-129.328470
0
VERTEX
8
1
10
91.208372
20
291.526965
30
-131.998882
0
VERTEX
8
1
10
90.959206
20
291.592367
30
-132.076824
0
VERTEX
8
1
10
90.959206
20
293.855822
30
-129.379343
0
SEQEND
0
POLYLINE
8
1
62
0
66
1
70
9
0
VERTEX
8
1
10
91.540389
20
291.260917
30
-131.681818
0
VERTEX
8
1
10
91.540389
20
288.366461
30
-133.352933
0
VERTEX
8
1
10
91.409695
20
288.446930
30
-133.574021
0
SEQEND
0
POLYLINE
8
1
62
20
66
1
70
9
0
VERTEX
8
1
10
91.540389
20
291.260917
30
-131.681818
0
VERTEX
8
1
10
91.409695
20
288.446930
30
-133.574021
0
VERTEX
8
1
10
91.409695
20
291.412150
30
-131.862050
0
SEQEND
0
POLYLINE
8
1
62
0
66
1
70
9
0
VERTEX
8
1
10
91.409695
20
291.412150
30
-131.862050
0
VERTEX
8
1
10
91.409695
20
288.446930
30
-133.574021
0
VERTEX
8
1
10
91.208372
20
288.508022
30
-133.741869
0
SEQEND
0
POLYLINE
8
1
62
20
66
1
70
9
0
VERTEX
8
1
10
91.409695
20
291.412150
30
-131.862050
0
VERTEX
8
1
10
91.208372
20
288.508022
30
-133.741869
0
VERTEX
8
1
10
91.208372
20
291.526965
30
-131.998882
0
SEQEND
0
POLYLINE
8
1
62
0
66
1
70
9
0
VERTEX
8
1
10
91.540389
20
288.366461
30
-133.352933
0
VERTEX
8
1
10
91.540389
20
285.075007
30
-133.933305
0
VERTEX
8
1
10
91.409695
20
285.075007
30
-134.168582
0
SEQEND
0
POLYLINE
8
1
62
20
66
1
70
9
0
VERTEX
8
1
10
91.540389
20
288.366461
30
-133.352933
0
VERTEX
8
1
10
91.409695
20
285.075007
30
-134.168582
0
VERTEX
8
1
10
91.409695
20
288.446930
30
-133.574021
0
SEQEND
0
POLYLINE
8
1
62
0
66
1
70
9
0
VERTEX
8
1
10
91.409695
20
288.446930
30
-133.574021
0
VERTEX
8
1
10
91.409695
20
285.075007
30
-134.168582
0
VERTEX
8
1
10
91.208372
20
285.075007
30
-134.347202
0
SEQEND
0
POLYLINE
8
1
62
20
66
1
70
9
0
VERTEX
8
1
10
91.409695
20
288.446930
30
-133.574021
0
VERTEX
8
1
10
91.208372
20
285.075007
30
-134.347202
0
VERTEX
8
1
10
91.208372
20
288.508022
30
-133.741869
0
SEQEND
0
POLYLINE
8
1
62
0
66
1
70
9
0
VERTEX
8
1
10
91.540389
20
285.075007
30
-133.933305
0
VERTEX
8
1
10
91.540389
20
281.783553
30
-133.352933
0
VERTEX
8
1
10
91.409695
20
281.703084
30
-133.574021
0
SEQEND
0
POLYLINE
8
1
62
20
66
1
70
9
0
VERTEX
8
1
10
91.540389
20
285.075007
30
-133.933305
0
VERTEX
8
1
10
91.409695
20
281.703084
30
-133.574021
0
VERTEX
8
1
10
91.409695
20
285.075007
30
-134.168582
0
SEQEND
0
POLYLINE
8
1
62
0
66
1
70
9
0
VERTEX
8
1
10
91.409695
20
285.075007
30
-134.168582
0
VERTEX
8
1
10
91.409695
20
281.703084
30
-133.574021
0
VERTEX
8
1
10
91.208372
20
281.641992
30
-133.741869
0
SEQEND
0
POLYLINE
8
1
62
20
66
1
70
9
0
VERTEX
8
1
10
91.409695
20
285.075007
30
-134.168582
0
VERTEX
8
1
10
91.208372
20
281.641992
30
-133.741869
0
VERTEX
8
1
10
91.208372
20
285.075007
30
-134.347202
0
SEQEND
0
POLYLINE
8
1
62
0
66
1
70
9
0
VERTEX
8
1
10
91.540389
20
281.783553
30
-133.352933
0
VERTEX
8
1
10
91.540389
20
278.889097
30
-131.681818
0
VERTEX
8
1
10
91.409695
20
278.737864
30
-131.862050
0
SEQEND
0
POLYLINE
8
1
62
20
66
1
70
9
0
VERTEX
8
1
10
91.540389
20
281.783553
30
-133.352933
0
VERTEX
8
1
10
91.409695
20
278.737864
30
-131.862050
0
VERTEX
8
1
10
91.409695
20
281.703084
30
-133.574021
0
SEQEND
0
POLYLINE
8
1
62
0
66
1
70
9
0
VERTEX
8
1
10
91.409695
20
281.703084
30
-133.574021
0
VERTEX
8
1
10
91.409695
20
278.737864
30
-131.862050
0
VERTEX
8
1
10
91.208372
20
278.623049
30
-131.998882
0
SEQEND
0
POLYLINE
8
1
62
20
66
1
70
9
0
VERTEX
8
1
10
91.409695
20
281.703084
30
-133.574021
0
VERTEX
8
1
10
91.208372
20
278.623049
30
-131.998882
0
VERTEX
8
1
10
91.208372
20
281.641992
30
-133.741869
0
SEQEND
0
POLYLINE
8
1
62
0
66
1
70
9
0
VERTEX
8
1
10
91.540389
20
278.889097
30
-131.681818
0
VERTEX
8
1
10
91.540389
20
276.740753
30
-129.121521
0
VERTEX
8
1
10
91.409695
20
276.536997
30
-129.239160
0
SEQEND
0
POLYLINE
8
1
62
20
66
1
70
9
0
VERTEX
8
1
10
91.540389
20
278.889097
30
-131.681818
0
VERTEX
8
1
10
91.409695
20
276.536997
30
-129.239160
0
VERTEX
8
1
10
91.409695
20
278.737864
30
-131.862050
0
SEQEND
0
POLYLINE
8
1
62
0
66
1
70
9
0
VERTEX
8
1
10
91.409695
20
278.737864
30
-131.862050
0
VERTEX
8
1
10
91.409695
20
276.536997
30
-129.239160
0
VERTEX
8
1
10
91.208372
20
276.382307
30
-129.328470
0
SEQEND
0
POLYLINE
8
1
62
20
66
1
70
9
0
VERTEX
8
1
10
91.409695
20
278.737864
30
-131.862050
0
VERTEX
8
1
10
91.208372
20
276.382307
30
-129.328470
0
VERTEX
8
1
10
91.208372
20
278.623049
30
-131.998882
0
SEQEND
0
POLYLINE
8
1
62
0
66
1
70
9
0
VERTEX
8
1
10
91.540389
20
276.740753
30
-129.121521
0
VERTEX
8
1
10
91.540389
20
275.597643
30
-125.980852
0
VERTEX
8
1
10
91.409695
20
275.365940
30
-126.021708
0
SEQEND
0
POLYLINE
8
1
62
20
66
1
70
9
0
VERTEX
8
1
10
91.540389
20
276.740753
30
-129.121521
0
VERTEX
8
1
10
91.409695
20
275.365940
30
-126.021708
0
VERTEX
8
1
10
91.409695
20
276.536997
30
-129.239160
0
SEQEND
0
POLYLINE
8
1
62
0
66
1
70
9
0
VERTEX
8
1
10
91.409695
20
276.536997
30
-129.239160
0
VERTEX
8
1
10
91.409695
20
275.365940
30
-126.021708
0
VERTEX
8
1
10
91.208372
20
275.190034
30
-126.052725
0
SEQEND
0
POLYLINE
8
1
62
20
66
1
70
9
0
VERTEX
8
1
10
91.409695
20
276.536997
30
-129.239160
0
VERTEX
8
1
10
91.208372
20
275.190034
30
-126.052725
0
VERTEX
8
1
10
91.208372
20
276.382307
30
-129.328470
0
SEQEND
0
POLYLINE
8
1
62
0
66
1
70
9
0
VERTEX
8
1
10
91.540389
20
275.597643
30
-125.980852
0
VERTEX
8
1
10
91.540389
20
275.597643
30
-122.638622
0
VERTEX
8
1
10
91.409695
20
275.365940
30
-122.597767
0
SEQEND
0
POLYLINE
8
1
62
20
66
1
70
9
0
VERTEX
8
1
10
91.540389
20
275.597643
30
-125.980852
0
VERTEX
8
1
10
91.409695
20
275.365940
30
-122.597767
0
VERTEX
8
1
10
91.409695
20
275.365940
30
-126.021708
0
SEQEND
0
POLYLINE
8
1
62
0
66
1
70
9
0
VERTEX
8
1
10
91.409695
20
275.365940
30
-126.021708
0
VERTEX
8
1
10
91.409695
20
275.365940
30
-122.597767
0
VERTEX
8
1
10
91.208372
20
275.190034
30
-122.566750
0
SEQEND
0
POLYLINE
8
1
62
20
66
1
70
9
0
VERTEX
8
1
10
91.409695
20
275.365940
30
-126.021708
0
VERTEX
8
1
10
91.208372
20
275.190034
30
-122.566750
0
VERTEX
8
1
10
91.208372
20
275.190034
30
-126.052725
0
SEQEND
0
POLYLINE
8
1
62
0
66
1
70
9
0
VERTEX
8
1
10
91.540389
20
275.597643
30
-122.638622
0
VERTEX
8
1
10
91.540389
20
276.740753
30
-119.497953
0
VERTEX
8
1
10
91.409695
20
276.536997
30
-119.380315
0
SEQEND
0
POLYLINE
8
1
62
20
66
1
70
9
0
VERTEX
8
1
10
91.540389
20
275.597643
30
-122.638622
0
VERTEX
8
1
10
91.409695
20
276.536997
30
-119.380315
0
VERTEX
8
1
10
91.409695
20
275.365940
30
-122.597767
0
SEQEND
0
POLYLINE
8
1
62
0
66
1
70
9
0
VERTEX
8
1
10
91.409695
20
275.365940
30
-122.597767
0
VERTEX
8
1
10
91.409695
20
276.536997
30
-119.380315
0
VERTEX
8
1
10
91.208372
20
276.382307
30
-119.291005
0
SEQEND
0
POLYLINE
8
1
62
20
66
1
70
9
0
VERTEX
8
1
10
91.409695
20
275.365940
30
-122.597767
0
VERTEX
8
1
10
91.208372
20
276.382307
30
-119.291005
0
VERTEX
8
1
10
91.208372
20
275.190034
30
-122.566750
0
SEQEND
0
POLYLINE
8
1
62
0
66
1
70
9
0
VERTEX
8
1
10
91.540389
20
276.740753
30
-119.497953
0
VERTEX
8
1
10
91.540389
20
278.889097
30
-116.937657
0
VERTEX
8
1
10
91.409695
20
278.737864
30
-116.757424
0
SEQEND
0
POLYLINE
8
1
62
20
66
1
70
9
0
VERTEX
8
1
10
91.540389
20
276.740753
30
-119.497953
0
VERTEX
8
1
10
91.409695
20
278.737864
30
-116.757424
0
VERTEX
8
1
10
91.409695
20
276.536997
30
-119.380315
0
SEQEND
0
POLYLINE
8
1
62
0
66
1
70
9
0
VERTEX
8
1
10
91.409695
20
276.536997
30
-119.380315
0
VERTEX
8
1
10
91.409695
20
278.737864
30
-116.757424
0
VERTEX
8
1
10
91.208372
20
278.623049
30
-116.620593
0
SEQEND
0
POLYLINE
8
1
62
20
66
1
70
9
0
VERTEX
8
1
10
91.409695
20
276.536997
30
-119.380315
0
VERTEX
8
1
10
91.208372
20
278.623049
30
-116.620593
0
VERTEX
8
1
10
91.208372
20
276.382307
30
-119.291005
0
SEQEND
0
POLYLINE
8
1
62
0
66
1
70
9
0
VERTEX
8
1
10
91.540389
20
278.889097
30
-116.937657
0
VERTEX
8
1
10
91.540389
20
281.783553
30
-115.266542
0
VERTEX
8
1
10
91.409695
20
281.703084
30
-115.045454
0
SEQEND
0
POLYLINE
8
1
62
20
66
1
70
9
0
VERTEX
8
1
10
91.540389
20
278.889097
30
-116.937657
0
VERTEX
8
1
10
91.409695
20
281.703084
30
-115.045454
0
VERTEX
8
1
10
91.409695
20
278.737864
30
-116.757424
0
SEQEND
0
POLYLINE
8
1
62
0
66
1
70
9
0
VERTEX
8
1
10
91.409695
20
278.737864
30
-116.757424
0
VERTEX
8
1
10
91.409695
20
281.703084
30
-115.045454
0
VERTEX
8
1
10
91.208372
20
281.641992
30
-114.877605
0
SEQEND
0
POLYLINE
8
1
62
20
66
1
70
9
0
VERTEX
8
1
10
91.409695
20
278.737864
30
-116.757424
0
VERTEX
8
1
10
91.208372
20
281.641992
30
-114.877605
0
VERTEX
8
1
10
91.208372
20
278.623049
30
-116.620593
0
SEQEND
0
POLYLINE
8
1
62
0
66
1
70
9
0
VERTEX
8
1
10
91.540389
20
281.783553
30
-115.266542
0
VERTEX
8
1
10
91.540389
20
285.075007
30
-114.686170
0
VERTEX
8
1
10
91.409695
20
285.075007
30
-114.450893
0
SEQEND
0
POLYLINE
8
1
62
20
66
1
70
9
0
VERTEX
8
1
10
91.540389
20
281.783553
30
-115.266542
0
VERTEX
8
1
10
91.409695
20
285.075007
30
-114.450893
0
VERTEX
8
1
10
91.409695
20
281.703084
30
-115.045454
0
SEQEND
0
POLYLINE
8
1
62
0
66
1
70
9
0
VERTEX
8
1
10
91.409695
20
281.703084
30
-115.045454
0
VERTEX
8
1
10
91.409695
20
285.075007
30
-114.450893
0
VERTEX
8
1
10
91.208372
20
285.075007
30
-114.272272
0
SEQEND
0
POLYLINE
8
1
62
20
66
1
70
9
0
VERTEX
8
1
10
91.409695
20
281.703084
30
-115.045454
0
VERTEX
8
1
10
91.208372
20
285.075007
30
-114.272272
0
VERTEX
8
1
10
91.208372
20
281.641992
30
-114.877605
0
SEQEND
0
POLYLINE
8
1
62
0
66
1
70
9
0
VERTEX
8
1
10
91.540389
20
285.075007
30
-114.686170
0
VERTEX
8
1
10
91.540389
20
288.366461
30
-115.266542
0
VERTEX
8
1
10
91.409695
20
288.446930
30
-115.045454
0
SEQEND
0
POLYLINE
8
1
62
20
66
1
70
9
0
VERTEX
8
1
10
91.540389
20
285.075007
30
-114.686170
0
VERTEX
8
1
10
91.409695
20
288.446930
30
-115.045454
0
VERTEX
8
1
10
91.409695
20
285.075007
30
-114.450893
0
SEQEND
0
POLYLINE
8
1
62
0
66
1
70
9
0
VERTEX
8
1
10
91.409695
20
285.075007
30
-114.450893
0
VERTEX
8
1
10
91.409695
20
288.446930
30
-115.045454
0
VERTEX
8
1
10
91.208372
20
288.508022
30
-114.877605
0
SEQEND
0
POLYLINE
8
1
62
20
66
1
70
9
0
VERTEX
8
1
10
91.409695
20
285.075007
30
-114.450893
0
VERTEX
8
1
10
91.208372
20
288.508022
30
-114.877605
0
VERTEX
8
1
10
91.208372
20
285.075007
30
-114.272272
0
SEQEND
0
POLYLINE
8
1
62
0
66
1
70
9
0
VERTEX
8
1
10
91.540389
20
288.366461
30
-115.266542
0
VERTEX
8
1
10
91.540389
20
291.260917
30
-116.937657
0
VERTEX
8
1
10
91.409695
20
291.412150
30
-116.757424
0
SEQEND
0
POLYLINE
8
1
62
20
66
1
70
9
0
VERTEX
8
1
10
91.540389
20
288.366461
30
-115.266542
0
VERTEX
8
1
10
91.409695
20
291.412150
30
-116.757424
0
VERTEX
8
1
10
91.409695
20
288.446930
30
-115.045454
0
SEQEND
0
POLYLINE
8
1
62
0
66
1
70
9
0
VERTEX
8
1
10
91.409695
20
288.446930
30
-115.045454
0
VERTEX
8
1
10
91.409695
20
291.412150
30
-116.757424
0
VERTEX
8
1
10
91.208372
20
291.526965
30
-116.620593
0
SEQEND
0
POLYLINE
8
1
62
20
66
1
70
9
0
VERTEX
8
1
10
91.409695
20
288.446930
30
-115.045454
0
VERTEX
8
1
10
91.208372
20
291.526965
30
-116.620593
0
VERTEX
8
1
10
91.208372
20
288.508022
30
-114.877605
0
SEQEND
0
POLYLINE
8
1
62
0
66
1
70
9
0
VERTEX
8
1
10
91.540389
20
291.260917
30
-116.937657
0
VERTEX
8
1
10
91.540389
20
293.409261
30
-119.497953
0
VERTEX
8
1
10
91.409695
20
293.613017
30
-119.380315
0
SEQEND
0
POLYLINE
8
1
62
20
66
1
70
9
0
VERTEX
8
1
10
91.540389
20
291.260917
30
-116.937657
0
VERTEX
8
1
10
91.409695
20
293.613017
30
-119.380315
0
VERTEX
8
1
10
91.409695
20
291.412150
30
-116.757424
0
SEQEND
0
POLYLINE
8
1
62
0
66
1
70
9
0
VERTEX
8
1
10
91.409695
20
291.412150
30
-116.757424
0
VERTEX
8
1
10
91.409695
20
293.613017
30
-119.380315
0
VERTEX
8
1
10
91.208372
20
293.767707
30
-119.291005
0
SEQEND
0
POLYLINE
8
1
62
20
66
1
70
9
0
VERTEX
8
1
10
91.409695
20
291.412150
30
-116.757424
0
VERTEX
8
1
10
91.208372
20
293.767707
30
-119.291005
0
VERTEX
8
1
10
91.208372
20
291.526965
30
-116.620593
0
SEQEND
0
POLYLINE
8
1
62
0
66
1
70
9
0
VERTEX
8
1
10
91.540389
20
293.409261
30
-119.497953
0
VERTEX
8
1
10
91.540389
20
294.552371
30
-122.638622
0
VERTEX
8
1
10
91.409695
20
294.784074
30
-122.597767
0
SEQEND
0
POLYLINE
8
1
62
20
66
1
70
9
0
VERTEX
8
1
10
91.540389
20
293.409261
30
-119.497953
0
VERTEX
8
1
10
91.409695
20
294.784074
30
-122.597767
0
VERTEX
8
1
10
91.409695
20
293.613017
30
-119.380315
0
SEQEND
0
POLYLINE
8
1
62
0
66
1
70
9
0
VERTEX
8
1
10
91.409695
20
293.613017
30
-119.380315
0
VERTEX
8
1
10
91.409695
20
294.784074
30
-122.597767
0
VERTEX
8
1
10
91.208372
20
294.959980
30
-122.566750
0
SEQEND
0
POLYLINE
8
1
62
20
66
1
70
9
0
VERTEX
8
1
10
91.409695
20
293.613017
30
-119.380315
0
VERTEX
8
1
10
91.208372
20
294.959980
30
-122.566750
0
VERTEX
8
1
10
91.208372
20
293.767707
30
-119.291005
0
SEQEND
0
POLYLINE
8
1
62
0
66
1
70
9
0
VERTEX
8
1
10
91.540389
20
294.552371
30
-122.638622
0
VERTEX
8
1
10
91.540389
20
294.552371
30
-125.980852
0
VERTEX
8
1
10
91.409695
20
294.784074
30
-126.021708
0
SEQEND
0
POLYLINE
8
1
62
20
66
1
70
9
0
VERTEX
8
1
10
91.540389
20
294.552371
30
-122.638622
0
VERTEX
8
1
10
91.409695
20
294.784074
30
-126.021708
0
VERTEX
8
1
10
91.409695
20
294.784074
30
-122.597767
0
SEQEND
0
POLYLINE
8
1
62
0
66
1
70
9
0
VERTEX
8
1
10
91.409695
20
294.784074
30
-122.597767
0
VERTEX
8
1
10
91.409695
20
294.784074
30
-126.021708
0
VERTEX
8
1
10
91.208372
20
294.959980
30
-126.052725
0
SEQEND
0
POLYLINE
8
1
62
20
66
1
70
9
0
VERTEX
8
1
10
91.409695
20
294.784074
30
-122.597767
0
VERTEX
8
1
10
91.208372
20
294.959980
30
-126.052725
0
VERTEX
8
1
10
91.208372
20
294.959980
30
-122.566750
0
SEQEND
0
POLYLINE
8
1
62
0
66
1
70
9
0
VERTEX
8
1
10
91.540389
20
294.552371
30
-125.980852
0
VERTEX
8
1
10
91.540389
20
293.409261
30
-129.121521
0
VERTEX
8
1
10
91.409695
20
293.613017
30
-129.239160
0
SEQEND
0
POLYLINE
8
1
62
20
66
1
70
9
0
VERTEX
8
1
10
91.540389
20
294.552371
30
-125.980852
0
VERTEX
8
1
10
91.409695
20
293.613017
30
-129.239160
0
VERTEX
8
1
10
91.409695
20
294.784074
30
-126.021708
0
SEQEND
0
POLYLINE
8
1
62
0
66
1
70
9
0
VERTEX
8
1
10
91.409695
20
294.784074
30
-126.021708
0
VERTEX
8
1
10
91.409695
20
293.613017
30
-129.239160
0
VERTEX
8
1
10
91.208372
20
293.767707
30
-129.328470
0
SEQEND
0
POLYLINE
8
1
62
20
66
1
70
9
0
VERTEX
8
1
10
91.409695
20
294.784074
30
-126.021708
0
VERTEX
8
1
10
91.208372
20
293.767707
30
-129.328470
0
VERTEX
8
1
10
91.208372
20
294.959980
30
-126.052725
0
SEQEND
0
POLYLINE
8
1
62
0
66
1
70
9
0
VERTEX
8
1
10
91.540389
20
293.409261
30
-129.121521
0
VERTEX
8
1
10
91.540389
20
291.260917
30
-131.681818
0
VERTEX
8
1
10
91.409695
20
291.412150
30
-131.862050
0
SEQEND
0
POLYLINE
8
1
62
20
66
1
70
9
0
VERTEX
8
1
10
91.540389
20
293.409261
30
-129.121521
0
VERTEX
8
1
10
91.409695
20
291.412150
30
-131.862050
0
VERTEX
8
1
10
91.409695
20
293.613017
30
-129.239160
0
SEQEND
0
POLYLINE
8
1
62
0
66
1
70
9
0
VERTEX
8
1
10
91.409695
20
293.613017
30
-129.239160
0
VERTEX
8
1
10
91.409695
20
291.412150
30
-131.862050
0
VERTEX
8
1
10
91.208372
20
291.526965
30
-131.998882
0
SEQEND
0
POLYLINE
8
1
62
20
66
1
70
9
0
VERTEX
8
1
10
91.409695
20
293.613017
30
-129.239160
0
VERTEX
8
1
10
91.208372
20
291.526965
30
-131.998882
0
VERTEX
8
1
10
91.208372
20
293.767707
30
-129.328470
0
SEQEND
0
POLYLINE
8
1
62
0
66
1
70
9
0
VERTEX
8
1
10
59.585661
20
280.286725
30
-137.465434
0
VERTEX
8
1
10
59.585661
20
276.075980
30
-135.034359
0
VERTEX
8
1
10
59.585661
20
272.950651
30
-131.309737
0
VERTEX
8
1
10
59.585661
20
271.287698
30
-126.740812
0
VERTEX
8
1
10
59.585661
20
271.287698
30
-121.878663
0
VERTEX
8
1
10
59.585661
20
272.950651
30
-117.309737
0
VERTEX
8
1
10
59.585661
20
276.075980
30
-113.585115
0
VERTEX
8
1
10
59.585661
20
280.286725
30
-111.154041
0
VERTEX
8
1
10
59.585661
20
285.075007
30
-110.309737
0
VERTEX
8
1
10
59.585661
20
289.863289
30
-111.154041
0
VERTEX
8
1
10
59.585661
20
294.074034
30
-113.585115
0
VERTEX
8
1
10
59.585661
20
297.199363
30
-117.309737
0
VERTEX
8
1
10
59.585661
20
298.862316
30
-121.878663
0
VERTEX
8
1
10
59.585661
20
298.862316
30
-126.740812
0
VERTEX
8
1
10
59.585661
20
297.199363
30
-131.309737
0
VERTEX
8
1
10
59.585661
20
294.074034
30
-135.034359
0
VERTEX
8
1
10
59.585661
20
289.863289
30
-137.465434
0
VERTEX
8
1
10
59.585661
20
285.075007
30
-138.309737
0
SEQEND
0
POLYLINE
8
1
62
0
66
1
70
9
0
VERTEX
8
1
10
-80.414339
20
285.075007
30
-141.809737
0
VERTEX
8
1
10
-80.414339
20
288.113850
30
-141.543873
0
VERTEX
8
1
10
59.585661
20
288.113850
30
-141.543873
0
VERTEX
8
1
10
59.585661
20
285.075007
30
-141.809737
0
SEQEND
0
POLYLINE
8
1
62
0
66
1
70
9
0
VERTEX
8
1
10
-80.414339
20
288.113850
30
-141.543873
0
VERTEX
8
1
10
-80.414339
20
291.060360
30
-140.754358
0
VERTEX
8
1
10
59.585661
20
291.060360
30
-140.754358
0
VERTEX
8
1
10
59.585661
20
288.113850
30
-141.543873
0
SEQEND
0
POLYLINE
8
1
62
0
66
1
70
9
0
VERTEX
8
1
10
-80.414339
20
291.060360
30
-140.754358
0
VERTEX
8
1
10
-80.414339
20
293.825007
30
-139.465182
0
VERTEX
8
1
10
59.585661
20
293.825007
30
-139.465182
0
VERTEX
8
1
10
59.585661
20
291.060360
30
-140.754358
0
SEQEND
0
POLYLINE
8
1
62
0
66
1
70
9
0
VERTEX
8
1
10
-80.414339
20
293.825007
30
-139.465182
0
VERTEX
8
1
10
-80.414339
20
296.323790
30
-137.715515
0
VERTEX
8
1
10
59.585661
20
296.323790
30
-137.715515
0
VERTEX
8
1
10
59.585661
20
293.825007
30
-139.465182
0
SEQEND
0
POLYLINE
8
1
62
0
66
1
70
9
0
VERTEX
8
1
10
-80.414339
20
296.323790
30
-137.715515
0
VERTEX
8
1
10
-80.414339
20
298.480785
30
-135.558520
0
VERTEX
8
1
10
59.585661
20
298.480785
30
-135.558520
0
VERTEX
8
1
10
59.585661
20
296.323790
30
-137.715515
0
SEQEND
0
POLYLINE
8
1
62
0
66
1
70
9
0
VERTEX
8
1
10
-80.414339
20
298.480785
30
-135.558520
0
VERTEX
8
1
10
-80.414339
20
300.230452
30
-133.059737
0
VERTEX
8
1
10
59.585661
20
300.230452
30
-133.059737
0
VERTEX
8
1
10
59.585661
20
298.480785
30
-135.558520
0
SEQEND
0
POLYLINE
8
1
62
0
66
1
70
9
0
VERTEX
8
1
10
-80.414339
20
300.230452
30
-133.059737
0
VERTEX
8
1
10
-80.414339
20
301.519628
30
-130.295090
0
VERTEX
8
1
10
59.585661
20
301.519628
30
-130.295090
0
VERTEX
8
1
10
59.585661
20
300.230452
30
-133.059737
0
SEQEND
0
POLYLINE
8
1
62
0
66
1
70
9
0
VERTEX
8
1
10
-80.414339
20
301.519628
30
-130.295090
0
VERTEX
8
1
10
-80.414339
20
302.309143
30
-127.348580
0
VERTEX
8
1
10
59.585661
20
302.309143
30
-127.348580
0
VERTEX
8
1
10
59.585661
20
301.519628
30
-130.295090
0
SEQEND
0
POLYLINE
8
1
62
0
66
1
70
9
0
VERTEX
8
1
10
-80.414339
20
302.309143
30
-127.348580
0
VERTEX
8
1
10
-80.414339
20
302.575007
30
-124.309737
0
VERTEX
8
1
10
59.585661
20
302.575007
30
-124.309737
0
VERTEX
8
1
10
59.585661
20
302.309143
30
-127.348580
0
SEQEND
0
POLYLINE
8
1
62
0
66
1
70
9
0
VERTEX
8
1
10
-80.414339
20
302.575007
30
-124.309737
0
VERTEX
8
1
10
-80.414339
20
302.309143
30
-121.270894
0
VERTEX
8
1
10
59.585661
20
302.309143
30
-121.270894
0
VERTEX
8
1
10
59.585661
20
302.575007
30
-124.309737
0
SEQEND
0
POLYLINE
8
1
62
0
66
1
70
9
0
VERTEX
8
1
10
-80.414339
20
302.309143
30
-121.270894
0
VERTEX
8
1
10
-80.414339
20
301.519628
30
-118.324385
0
VERTEX
8
1
10
59.585661
20
301.519628
30
-118.324385
0
VERTEX
8
1
10
59.585661
20
302.309143
30
-121.270894
0
SEQEND
0
POLYLINE
8
1
62
0
66
1
70
9
0
VERTEX
8
1
10
-80.414339
20
301.519628
30
-118.324385
0
VERTEX
8
1
10
-80.414339
20
300.230452
30
-115.559737
0
VERTEX
8
1
10
59.585661
20
300.230452
30
-115.559737
0
VERTEX
8
1
10
59.585661
20
301.519628
30
-118.324385
0
SEQEND
0
POLYLINE
8
1
62
0
66
1
70
9
0
VERTEX
8
1
10
-80.414339
20
300.230452
30
-115.559737
0
VERTEX
8
1
10
-80.414339
20
298.480785
30
-113.060954
0
VERTEX
8
1
10
59.585661
20
298.480785
30
-113.060954
0
VERTEX
8
1
10
59.585661
20
300.230452
30
-115.559737
0
SEQEND
0
POLYLINE
8
1
62
0
66
1
70
9
0
VERTEX
8
1
10
-80.414339
20
298.480785
30
-113.060954
0
VERTEX
8
1
10
-80.414339
20
296.323790
30
-110.903959
0
VERTEX
8
1
10
59.585661
20
296.323790
30
-110.903959
0
VERTEX
8
1
10
59.585661
20
298.480785
30
-113.060954
0
SEQEND
0
POLYLINE
8
1
62
0
66
1
70
9
0
VERTEX
8
1
10
-80.414339
20
296.323790
30
-110.903959
0
VERTEX
8
1
10
-80.414339
20
293.825007
30
-109.154293
0
VERTEX
8
1
10
59.585661
20
293.825007
30
-109.154293
0
VERTEX
8
1
10
59.585661
20
296.323790
30
-110.903959
0
SEQEND
0
POLYLINE
8
1
62
0
66
1
70
9
0
VERTEX
8
1
10
-80.414339
20
293.825007
30
-109.154293
0
VERTEX
8
1
10
-80.414339
20
291.060360
30
-107.865116
0
VERTEX
8
1
10
59.585661
20
291.060360
30
-107.865116
0
VERTEX
8
1
10
59.585661
20
293.825007
30
-109.154293
0
SEQEND
0
POLYLINE
8
1
62
0
66
1
70
9
0
VERTEX
8
1
10
-80.414339
20
291.060360
30
-107.865116
0
VERTEX
8
1
10
-80.414339
20
288.113850
30
-107.075602
0
VERTEX
8
1
10
59.585661
20
288.113850
30
-107.075602
0
VERTEX
8
1
10
59.585661
20
291.060360
30
-107.865116
0
SEQEND
0
POLYLINE
8
1
62
0
66
1
70
9
0
VERTEX
8
1
10
-80.414339
20
288.113850
30
-107.075602
0
VERTEX
8
1
10
-80.414339
20
285.075007
30
-106.809737
0
VERTEX
8
1
10
59.585661
20
285.075007
30
-106.809737
0
VERTEX
8
1
10
59.585661
20
288.113850
30
-107.075602
0
SEQEND
0
POLYLINE
8
1
62
0
66
1
70
9
0
VERTEX
8
1
10
-80.414339
20
285.075007
30
-106.809737
0
VERTEX
8
1
10
-80.414339
20
282.036164
30
-107.075602
0
VERTEX
8
1
10
59.585661
20
282.036164
30
-107.075602
0
VERTEX
8
1
10
59.585661
20
285.075007
30
-106.809737
0
SEQEND
0
POLYLINE
8
1
62
0
66
1
70
9
0
VERTEX
8
1
10
-80.414339
20
282.036164
30
-107.075602
0
VERTEX
8
1
10
-80.414339
20
279.089654
30
-107.865116
0
VERTEX
8
1
10
59.585661
20
279.089654
30
-107.865116
0
VERTEX
8
1
10
59.585661
20
282.036164
30
-107.075602
0
SEQEND
0
POLYLINE
8
1
62
0
66
1
70
9
0
VERTEX
8
1
10
-80.414339
20
279.089654
30
-107.865116
0
VERTEX
8
1
10
-80.414339
20
276.325007
30
-109.154293
0
VERTEX
8
1
10
59.585661
20
276.325007
30
-109.154293
0
VERTEX
8
1
10
59.585661
20
279.089654
30
-107.865116
0
SEQEND
0
POLYLINE
8
1
62
0
66
1
70
9
0
VERTEX
8
1
10
-80.414339
20
276.325007
30
-109.154293
0
VERTEX
8
1
10
-80.414339
20
273.826224
30
-110.903959
0
VERTEX
8
1
10
59.585661
20
273.826224
30
-110.903959
0
VERTEX
8
1
10
59.585661
20
276.325007
30
-109.154293
0
SEQEND
0
POLYLINE
8
1
62
0
66
1
70
9
0
VERTEX
8
1
10
-80.414339
20
273.826224
30
-110.903959
0
VERTEX
8
1
10
-80.414339
20
271.669229
30
-113.060954
0
VERTEX
8
1
10
59.585661
20
271.669229
30
-113.060954
0
VERTEX
8
1
10
59.585661
20
273.826224
30
-110.903959
0
SEQEND
0
POLYLINE
8
1
62
0
66
1
70
9
0
VERTEX
8
1
10
-80.414339
20
271.669229
30
-113.060954
0
VERTEX
8
1
10
-80.414339
20
269.919562
30
-115.559737
0
VERTEX
8
1
10
59.585661
20
269.919562
30
-115.559737
0
VERTEX
8
1
10
59.585661
20
271.669229
30
-113.060954
0
SEQEND
0
POLYLINE
8
1
62
0
66
1
70
9
0
VERTEX
8
1
10
-80.414339
20
269.919562
30
-115.559737
0
VERTEX
8
1
10
-80.414339
20
268.630386
30
-118.324385
0
VERTEX
8
1
10
59.585661
20
268.630386
30
-118.324385
0
VERTEX
8
1
10
59.585661
20
269.919562
30
-115.559737
0
SEQEND
0
POLYLINE
8
1
62
0
66
1
70
9
0
VERTEX
8
1
10
-80.414339
20
268.630386
30
-118.324385
0
VERTEX
8
1
10
-80.414339
20
267.840871
30
-121.270894
0
VERTEX
8
1
10
59.585661
20
267.840871
30
-121.270894
0
VERTEX
8
1
10
59.585661
20
268.630386
30
-118.324385
0
SEQEND
0
POLYLINE
8
1
62
0
66
1
70
9
0
VERTEX
8
1
10
-80.414339
20
267.840871
30
-121.270894
0
VERTEX
8
1
10
-80.414339
20
267.575007
30
-124.309737
0
VERTEX
8
1
10
59.585661
20
267.575007
30
-124.309737
0
VERTEX
8
1
10
59.585661
20
267.840871
30
-121.270894
0
SEQEND
0
POLYLINE
8
1
62
0
66
1
70
9
0
VERTEX
8
1
10
-80.414339
20
267.575007
30
-124.309737
0
VERTEX
8
1
10
-80.414339
20
267.840871
30
-127.348580
0
VERTEX
8
1
10
59.585661
20
267.840871
30
-127.348580
0
VERTEX
8
1
10
59.585661
20
267.575007
30
-124.309737
0
SEQEND
0
POLYLINE
8
1
62
0
66
1
70
9
0
VERTEX
8
1
10
-80.414339
20
267.840871
30
-127.348580
0
VERTEX
8
1
10
-80.414339
20
268.630386
30
-130.295090
0
VERTEX
8
1
10
59.585661
20
268.630386
30
-130.295090
0
VERTEX
8
1
10
59.585661
20
267.840871
30
-127.348580
0
SEQEND
0
POLYLINE
8
1
62
0
66
1
70
9
0
VERTEX
8
1
10
-80.414339
20
268.630386
30
-130.295090
0
VERTEX
8
1
10
-80.414339
20
269.919562
30
-133.059737
0
VERTEX
8
1
10
59.585661
20
269.919562
30
-133.059737
0
VERTEX
8
1
10
59.585661
20
268.630386
30
-130.295090
0
SEQEND
0
POLYLINE
8
1
62
0
66
1
70
9
0
VERTEX
8
1
10
-80.414339
20
269.919562
30
-133.059737
0
VERTEX
8
1
10
-80.414339
20
271.669229
30
-135.558520
0
VERTEX
8
1
10
59.585661
20
271.669229
30
-135.558520
0
VERTEX
8
1
10
59.585661
20
269.919562
30
-133.059737
0
SEQEND
0
POLYLINE
8
1
62
0
66
1
70
9
0
VERTEX
8
1
10
-80.414339
20
271.669229
30
-135.558520
0
VERTEX
8
1
10
-80.414339
20
273.826224
30
-137.715515
0
VERTEX
8
1
10
59.585661
20
273.826224
30
-137.715515
0
VERTEX
8
1
10
59.585661
20
271.669229
30
-135.558520
0
SEQEND
0
POLYLINE
8
1
62
0
66
1
70
9
0
VERTEX
8
1
10
-80.414339
20
273.826224
30
-137.715515
0
VERTEX
8
1
10
-80.414339
20
276.325007
30
-139.465182
0
VERTEX
8
1
10
59.585661
20
276.325007
30
-139.465182
0
VERTEX
8
1
10
59.585661
20
273.826224
30
-137.715515
0
SEQEND
0
POLYLINE
8
1
62
0
66
1
70
9
0
VERTEX
8
1
10
-80.414339
20
276.325007
30
-139.465182
0
VERTEX
8
1
10
-80.414339
20
279.089654
30
-140.754358
0
VERTEX
8
1
10
59.585661
20
279.089654
30
-140.754358
0
VERTEX
8
1
10
59.585661
20
276.325007
30
-139.465182
0
SEQEND
0
POLYLINE
8
1
62
0
66
1
70
9
0
VERTEX
8
1
10
-80.414339
20
279.089654
30
-140.754358
0
VERTEX
8
1
10
-80.414339
20
282.036164
30
-141.543873
0
VERTEX
8
1
10
59.585661
20
282.036164
30
-141.543873
0
VERTEX
8
1
10
59.585661
20
279.089654
30
-140.754358
0
SEQEND
0
POLYLINE
8
1
62
0
66
1
70
9
0
VERTEX
8
1
10
-80.414339
20
282.036164
30
-141.543873
0
VERTEX
8
1
10
-80.414339
20
285.075007
30
-141.809737
0
VERTEX
8
1
10
59.585661
20
285.075007
30
-141.809737
0
VERTEX
8
1
10
59.585661
20
282.036164
30
-141.543873
0
SEQEND
0
POLYLINE
8
1
62
0
66
1
70
9
0
VERTEX
8
1
10
-80.414339
20
282.036164
30
-141.543873
0
VERTEX
8
1
10
-80.414339
20
279.089654
30
-140.754358
0
VERTEX
8
1
10
-80.414339
20
276.325007
30
-139.465182
0
VERTEX
8
1
10
-80.414339
20
273.826224
30
-137.715515
0
VERTEX
8
1
10
-80.414339
20
271.669229
30
-135.558520
0
VERTEX
8
1
10
-80.414339
20
269.919562
30
-133.059737
0
VERTEX
8
1
10
-80.414339
20
268.630386
30
-130.295090
0
VERTEX
8
1
10
-80.414339
20
267.840871
30
-127.348580
0
VERTEX
8
1
10
-80.414339
20
267.575007
30
-124.309737
0
VERTEX
8
1
10
-80.414339
20
267.840871
30
-121.270894
0
VERTEX
8
1
10
-80.414339
20
268.630386
30
-118.324385
0
VERTEX
8
1
10
-80.414339
20
269.919562
30
-115.559737
0
VERTEX
8
1
10
-80.414339
20
271.669229
30
-113.060954
0
VERTEX
8
1
10
-80.414339
20
273.826224
30
-110.903959
0
VERTEX
8
1
10
-80.414339
20
276.325007
30
-109.154293
0
VERTEX
8
1
10
-80.414339
20
279.089654
30
-107.865116
0
VERTEX
8
1
10
-80.414339
20
282.036164
30
-107.075602
0
VERTEX
8
1
10
-80.414339
20
285.075007
30
-106.809737
0
VERTEX
8
1
10
-80.414339
20
288.113850
30
-107.075602
0
VERTEX
8
1
10
-80.414339
20
291.060360
30
-107.865116
0
VERTEX
8
1
10
-80.414339
20
293.825007
30
-109.154293
0
VERTEX
8
1
10
-80.414339
20
296.323790
30
-110.903959
0
VERTEX
8
1
10
-80.414339
20
298.480785
30
-113.060954
0
VERTEX
8
1
10
-80.414339
20
300.230452
30
-115.559737
0
VERTEX
8
1
10
-80.414339
20
301.519628
30
-118.324385
0
VERTEX
8
1
10
-80.414339
20
302.309143
30
-121.270894
0
VERTEX
8
1
10
-80.414339
20
302.575007
30
-124.309737
0
VERTEX
8
1
10
-80.414339
20
302.309143
30
-127.348580
0
VERTEX
8
1
10
-80.414339
20
301.519628
30
-130.295090
0
VERTEX
8
1
10
-80.414339
20
300.230452
30
-133.059737
0
VERTEX
8
1
10
-80.414339
20
298.480785
30
-135.558520
0
VERTEX
8
1
10
-80.414339
20
296.323790
30
-137.715515
0
VERTEX
8
1
10
-80.414339
20
293.825007
30
-139.465182
0
VERTEX
8
1
10
-80.414339
20
291.060360
30
-140.754358
0
VERTEX
8
1
10
-80.414339
20
288.113850
30
-141.543873
0
VERTEX
8
1
10
-80.414339
20
285.075007
30
-141.809737
0
SEQEND
0
POLYLINE
8
1
62
0
66
1
70
9
0
VERTEX
8
1
10
59.585661
20
285.075007
30
-141.809737
0
VERTEX
8
1
10
59.585661
20
288.113850
30
-141.543873
0
VERTEX
8
1
10
59.585661
20
291.060360
30
-140.754358
0
VERTEX
8
1
10
59.585661
20
293.825007
30
-139.465182
0
VERTEX
8
1
10
59.585661
20
296.323790
30
-137.715515
0
VERTEX
8
1
10
59.585661
20
298.480785
30
-135.558520
0
VERTEX
8
1
10
59.585661
20
300.230452
30
-133.059737
0
VERTEX
8
1
10
59.585661
20
301.519628
30
-130.295090
0
VERTEX
8
1
10
59.585661
20
302.309143
30
-127.348580
0
VERTEX
8
1
10
59.585661
20
302.575007
30
-124.309737
0
VERTEX
8
1
10
59.585661
20
302.309143
30
-121.270894
0
VERTEX
8
1
10
59.585661
20
301.519628
30
-118.324385
0
VERTEX
8
1
10
59.585661
20
300.230452
30
-115.559737
0
VERTEX
8
1
10
59.585661
20
298.480785
30
-113.060954
0
VERTEX
8
1
10
59.585661
20
296.323790
30
-110.903959
0
VERTEX
8
1
10
59.585661
20
293.825007
30
-109.154293
0
VERTEX
8
1
10
59.585661
20
291.060360
30
-107.865116
0
VERTEX
8
1
10
59.585661
20
288.113850
30
-107.075602
0
VERTEX
8
1
10
59.585661
20
285.075007
30
-106.809737
0
VERTEX
8
1
10
59.585661
20
282.036164
30
-107.075602
0
VERTEX
8
1
10
59.585661
20
279.089654
30
-107.865116
0
VERTEX
8
1
10
59.585661
20
276.325007
30
-109.154293
0
VERTEX
8
1
10
59.585661
20
273.826224
30
-110.903959
0
VERTEX
8
1
10
59.585661
20
271.669229
30
-113.060954
0
VERTEX
8
1
10
59.585661
20
269.919562
30
-115.559737
0
VERTEX
8
1
10
59.585661
20
268.630386
30
-118.324385
0
VERTEX
8
1
10
59.585661
20
267.840871
30
-121.270894
0
VERTEX
8
1
10
59.585661
20
267.575007
30
-124.309737
0
VERTEX
8
1
10
59.585661
20
267.840871
30
-127.348580
0
VERTEX
8
1
10
59.585661
20
268.630386
30
-130.295090
0
VERTEX
8
1
10
59.585661
20
269.919562
30
-133.059737
0
VERTEX
8
1
10
59.585661
20
271.669229
30
-135.558520
0
VERTEX
8
1
10
59.585661
20
273.826224
30
-137.715515
0
VERTEX
8
1
10
59.585661
20
276.325007
30
-139.465182
0
VERTEX
8
1
10
59.585661
20
279.089654
30
-140.754358
0
VERTEX
8
1
10
59.585661
20
282.036164
30
-141.543873
0
SEQEND
0
ENDSEC
0
EOF
